Song name
# A B C D E F G H I J K L M N O P Q R S T U V W X Y Z

Anal Blast - Bloody Brown Mouse tab

Help us improve GuitareTab! Take a short survey!
ANAL BLAST

Bloody Brown Mouse

Tuning-A
|(a)|high
|(G)|
|(D)|
|(A)|
|(E)|
|(A)|low

for the longest i couldnt find tabs for this band i love em' so im just spreading the 
so spread your cutn and gimmie a queef "hell yeah!"

-----------------------------------------------------

Riff A

|-----------------------------------------------------|
|-----------------------------------------------------|
|-----------------------------------------------------|
|-----------------------------------------------------|
|-----4-3-----1-0-------------------------------------|
|-0-1-----3-2-----------------------------------------|


riff B

|-----------------------------------------------------|
|-----------------------------------------------------|
|-----6-5-----3-2-------------------------------------|
|-----x-x-----x-x-------------------------------------|
|-0-1-4-3-3-2-1-0-------------------------------------|
|-0-1-----3-2-----------------------------------------|


riff C

|-----------------------------------------------------|
|-----------------------------------------------------|
|-----------------------------------------------------|
|-----6/5-----3/2-------------------------------------|
|-0-1-4/3-3-2-1/0-------------------------------------|
|-0-1-----3-2-----------------------------------------|
  . .     . .

Song order:

Ax5
Bx4
Ax3
Cx2
Ax1
end
Related for Bloody Brown Mouse tab