Song name
# A B C D E F G H I J K L M N O P Q R S T U V W X Y Z

Anal Cunt - Hes Got A Mustache tab

Tabbed 11/7/2012 by Hyks


Artist: Anal Cunt (AxC)
Album: Top 40 hits
Song: Art fag


Tuning: Standard
E, A, D, G, b, e


Intro (Basicly just make noise, they don't play anything there)
||-----------------------------------||
||-----------------------------------||
||-------4-3-j-u-8-g------9i4-3-j-4--||
||-g-j-i-t-3-4-u-9-0-k-----g-r-4-k---||
||-4-j-f-r-u-9-0-r-u-g-j-4-8-9-4-8-9-||
||-g-f-g---------3-b-j-0-3-4-5-j-8-9-||

End on a:
||-------------||
||-------------||
||-------------||
||-------------||
||-4~~~~~~~~~~-||
||-2~~~~~~~~~~-||


Verse:
||----------------------------------||
||----------------------------------||
||----------------------------------||
||----------------------------------||
||-9--9--9--9--9--9----7------------||
||-7--7--7--7--7--7--0-5------------||


Bridge thing
||--------------------------||
||--------------------------||
||--------------------------||
||----------9-8-------------||
||-9---9-9--7-6---4-4-4-4-4-||
||-7---7-7--------2-2-2-2-2-||


Verse:
||----------------------------------||
||----------------------------------||
||----------------------------------||
||----------------------------------||
||-9--9--9--9--9--9----7------------||
||-7--7--7--7--7--7--0-5------------||


HE'S GOT A MUST- 


AAAAAAAAAAAAAAAAARRRRRHHHHH!!!!!!!!!!!
||-------------------------------------||
||-------------------------------------||
||-5-b-6-4-w-5-w-4-5-v-b-6-w-4-5-v-b-6-||
||-q-4-v-5-q-v-4-3-v-5-3-4-5-3-4-v-5-3-||
||-5-6-b-e-5-e-6-4-b-5-w-k-5-b-6-k-5-6-||
||-4-b-4-6-b-t-r-y-n-f-g-e-5-6-4-b-h-5-||


then:
||-------------||
||-------------||
||-------------||
||-------------||
||-4~~~~~~~~~~-||
||-2~~~~~~~~~~-||


And then they play the verse riff one last time
||----------------------------------||
||----------------------------------||
||----------------------------------||
||----------------------------------||
||-9--9--9--9--9--9----7------------||
||-7--7--7--7--7--7--0-5------------||

And thats its.
Tap to rate this tab
# A B C D E F G H I J K L M N O P Q R S T U V W X Y Z