Song name
# A B C D E F G H I J K L M N O P Q R S T U V W X Y Z

Anal Cunt - Baby On Fire tab

e--3-----------0------------0----------0-----------0----0-----0----0----0------|
b---4----------341--------------341----------341-----------341----------341----|
g----2----341-------------341-----------341----------341-----------------------|
d----2--------------------------------------------------------------341--------|
a------------------------------------------------------------------------------|
e------------------------------------------------------------------------------|


e-1-1----1----1----1------------------------------------------------------------|
b------------------------89499351---------------------------------------------0-|
g---------------------------------8764194-------------------------------------0-|
d-----------------------------------------412418------------------------------2-|
a------------------------------------------------8683761----------------------2-|
e--------------------------------------------------------1-4--88--4-1---------2-|
Tap to rate this tab
# A B C D E F G H I J K L M N O P Q R S T U V W X Y Z