Song name
# A B C D E F G H I J K L M N O P Q R S T U V W X Y Z

Anal Cunt - I Lit Your Baby On Fire tab

Help us improve GuitareTab! Take a short survey!
Anal Cunt - I Lit Your Baby On Fire
Album: It Just Gets Worse
Tabbed by M. Sud (parachuteboy1@aol.com)

Tuning: Drop C (CGCFAD)

Intro:
D|----------------------------------------------------
A|----------------------------------------------------
F|-------------------------------------repeat---------
C|-1-3-3-3-1-3-3-3-3-4-4-4-4-0-0-0-0-----2x-----------
G|-1-3-3-3-1-3-3-3-3-4-4-4-4-0-0-0-0------------------
C|-1-3-3-3-1-3-3-3-3-4-4-4-4-0-0-0-0------------------

Verse:
D|--------------------------------------
A|--------------------------------------
F|---------------------------------repeat
C|-1-3-3-3-4-4-4-4-1-3-9--9-0-0--0-2x---
G|-1-3-3-3-4-4-4-4-1-3-9--9-0-0--0------
C|-1-3-3-3-4-4-4-4-1-3-9--9-0-0--0------

Chorus:
D|-----------------------------------------
A|-----------------------------------------
F|-----------------------------------------
C|-3-4--0--0--3-4--0--0--3-4--0--0--9-9-9-9
G|-3-4--0--0--3-4--0--0--3-4--0--0--9-9-9-9
C|-3-4--0--0--3-4--0--0--3-4--0--0--9-9-9-9
Related for I Lit Your Baby On Fire tab