Song name
# A B C D E F G H I J K L M N O P Q R S T U V W X Y Z

Anal Cunt - Youre Gay tab

Band: Anal Cunt
Song: You're Gay
Album: I Like It When You Die
Transcribed by: Andrew Collyer
Contact: the_hauntedcrown@hotmail.com

Credit to The Doctor for giving me a pointer for
this one, a beer to ya!

Copyright (c) Earache Records, 1997

TUNING: A D G C E A

. - palm mute / - slide up to
\ - slide down to ~ - vibrato
h - hammer on p - pull off
, - slight palm mute () - ghost note, sustained note
" - tremolo note <> - Trill

Suffixes for bend
f - full bend h - half bend
ph - pinched harmonic q - quarter bend
t - tap bend * - see comment
^ - Hold bend r - release bend
x - Stuccatto ~ - vibrato bend


Riff 1 (play 4 times)
----------------------------|
----------------------------|
----------------------------|
-7--7--7--7--7-7-7-7--7-7---|
-7--7--7--7--7-7-7-7--7-7---|
-5--5--5--5--5-5-5-5--5-5---|

Riff 2 (pick as fast as you can)
-----------------------|
-*random sliding up----|
---and down the neck*--|
-----------------------|
-----------------------|
-----------------------|

Riff 1 x 1
Riff 2 x 1

END
----------------------------|
----------------------------|
----------------------------|
-7--7--7--7--7-7-7-7--7-7---|
-7--7--7--7--7-7-7-7--7-7---|
-5--5--5--5--5-5-5-5--5-5---|
Tap to rate this tab
# A B C D E F G H I J K L M N O P Q R S T U V W X Y Z