Song name
# A B C D E F G H I J K L M N O P Q R S T U V W X Y Z

Anal Cunt - Shut Up Paul tab

-------------------------------------------------------------------------------
			     SHUT UP PAUL - Anal Cunt
-------------------------------------------------------------------------------
Tabbed by: Lucas Shumaker	
Email: youlookadopted@msn.com

Tuning:EADGBe

e|---------------------------------------------------------------------------|
B|---------------------------------------------------------------------------|
G|-------------(3x)----------------------------------------------------------|
D|-7-7-5-5-5-5------8-8-8-8-8-8-8--------------------------------------------| 4x
A|-7-7-5-5-5-5------8-8-8-8-8-8-8--------------------------------------------|
E|-5-5-3-3-3-3------6-6-6-6-6-6-6--------------------------------------------|


End song with:

e|---------------------------------------------------------------------------|
B|---------------------------------------------------------------------------|
G|-------------(3x)----------------------------------------------------------|
D|-7-7-5-5-5-5------8-8-8-8-8------------------------------------------------| 
A|-7-7-5-5-5-5------8-8-8-8-8------------------------------------------------|
E|-5-5-3-3-3-3------6-6-6-6-6------------------------------------------------|

Sounds correct to me. Could be wrong though. 
===============================================================================
Tap to rate this tab
 
# A B C D E F G H I J K L M N O P Q R S T U V W X Y Z