Song name
# A B C D E F G H I J K L M N O P Q R S T U V W X Y Z

Anal Cunt - Flower Shop Guy tab

Anal Cunt - "Flower Shop Guy"
                      From the Album Top 40 Hits
                      Version 1.0 - December 2002

Transcribed by: Cotyxd
email-Cotyxd@yahoo.com

Tune Gtr to E (standard)

"Flower Shop Guy"



Intro
|-----------------|
|-----------------|
|-----------------|
|---4---4---4-----|
|-4-2-4-2-4-2-4-3-|
|-2---2---2---2-1-|


Riff 1: same as intro only trem. picked

Riff 2:
|-------------------------------------------------|
|-------------------------------------------------|
|-------------------------------------------------|
|-------------------------------------------------|
|-0-2-0-2-5-2--0-2-0-2-5--0-2-0-2-5-2--0-2-0-2----|
|----------------------------------------------2--|

Tap to rate this tab
# A B C D E F G H I J K L M N O P Q R S T U V W X Y Z