Song name
# A B C D E F G H I J K L M N O P Q R S T U V W X Y Z

Anal Moose Ranch - Pirate Song tab

TITLE: THE PIRATE SONG
ARTIST: ANAL MOOSE RANCH
ALBUM: GOD THREW A SICKIE TODAY
TABBED BY DEXTER HETFIELD
ANY CORRECTIONS CONTACT ME AT
take_off_your_pants_and_jacket_now@hotmail.com

VERY EASY SONG, THE ONLY SONG BY AMR IN DROP-D TUNING

INTRO AND VERSES
1)----------------------------------------------------------|
2)----------------------------------------------------------|
3)----------------------------------------------------------|
4)----------------------------------------------------------|
5)----0-0---0-0-----(x 2)----5-5---5-5--------9-9---9-9-----|
6)--0-----------0-0--------5-----------5-5--9-----------9-9-|

CHORUS
1)------------------|
2)------------------|
3)--9---12----------|
4)--9---12---9---5--|
5)--7---10---9---5--|
6)-----------9---5--|

LAST VERSE RIFF
1)----------------------------------------------------------|
2)----------------------------------------------------------|
3)----------------------------------------------------------|
4)----------------------------------------------------------|
5)----0-0---0-0-----(x 2)----5-5---5-5--------3-3---3-3-----|
6)--0-----------0-0--------5-----------5-5--3-----------3-3-|

AND FADE TO END! AARRR! IM A PIRATE!
Tap to rate this tab
# A B C D E F G H I J K L M N O P Q R S T U V W X Y Z