Song name
# A B C D E F G H I J K L M N O P Q R S T U V W X Y Z

Anal Moose Ranch - My Daddy Loves Me tab

SONG TITLE: MY DADDY LOVES ME
ARTIST: ANAL MOOSE RANCH
ALBUM: GOD THREW A SICKIE TODAY
TABBED BY DEXTER HETFIELD
take_off_your_pants_and_jacket_now@hotmail.com

PLAYED THROUGHOUT SONG AT VARYING TEMPO
1)---------------------------------|
2)---------------------------------|
3)--5-5----------------------------|
4)--5-5----5-5----7-7----3-3-------|
5)--3-3----5-5----7-7----3-3-------|
6)---------3-3----5-5----1-1-------|


END OF SONG
1)---------------------------------|
2)---------------------------------|
3)--5-----------------5--5--5--5---|
4)--5------5-----3----5--5--5--5---|
5)--3------5-----3----3--3--3--3---|
6)---------3-----1-----------------|
AAAAANNNND FADE OUT.

REALLY SWEET SONG. ONE OF THE BEST. ANY COMMENT OR CORRECTIONS,
EMAIL ME AT take_off_your_pants_and_jacket_now@hotmail.com
Tap to rate this tab
# A B C D E F G H I J K L M N O P Q R S T U V W X Y Z