Song name
# A B C D E F G H I J K L M N O P Q R S T U V W X Y Z

Anal Moose Ranch - I Want To Be An Eel tab

ARTIST: ANAL MOOSE RANCH
SONG: I WANT TO BE AN EEL
ALBUM: GOD THREW A SICKIE TODAY
TABBED BY DEXTER HETFIELD
take_off_your_pants_and_jacket_now@hotmail.com

REALLY COOL SONG, LISTEN TO IT FOR TIMINGS
STANDARD TUNING, PLAYED WITH HEAVY DISTORTION AND LOTS OF VOLUME

INTRODUCTION
1)------------------------------|
2)------------------------------|
3)------------------------------|
4)------------------------------|
5)------0-0-------0-0-------0-0-|
6)--1-1-0-0---1-1-0-0---1-1-0-0-|
       (UH, UH, I WANT TO BE AN EEEEEL)

VERSE
1)-----------------------------|
2)-----------------------------|
3)--1-1-0-0---1-1-0-0----------|
4)--1-1-0-0---1-1-0-0----------|
5)--1-1-0-0---1-1-0-0----------|
6)--1-1-0-0---1-1-0-0----------|
(WANNA MAKE YA SQUEAL LIKE AN EEL)
  ***PLAYED NUMEROUS TIMES***

BRIDGE 1                        2
1)--4-5-6-8-0---------|  |----------|
2)--4-5-6-8-0---------|  |----------|
3)--------------------|  |--1---0h1-|
4)--------------------|  |--1---0h1-| (part 2 many times)
5)--------------5h7-0-|  |--1---0h1-|
6)--------------------|  |--1---0h1-|

(REPEAT CHORUS)

ENDING
1)--------------------|
2)--------------------|
3)--------------------|
4)--6-5-4-------------|
5)--6-5-4-------------|
6)--6-5-4-----3-2-1-0-| LET FINAL 0 FADE OUT

I WANTED TO BE AN EEEEEEL.
BRILLIANT SONG, MOST OF IT IS IMPROVISED AND DIFFICULT
TO TAB SO USE YOUR IMAGINATION!
Tap to rate this tab
# A B C D E F G H I J K L M N O P Q R S T U V W X Y Z