Song name
# A B C D E F G H I J K L M N O P Q R S T U V W X Y Z

Anamanaguchi - Another Winter tab

Another Winter by Anamanaguchi
Tabbed By ClassicRockerSr101

Okay, Last time I did the rhythm guitar, and I've had requests for the lead.
so.... LEAD TIME

0:11
-------------------------|
-----2------2------5~----|
---4---4-2----4-2--------|
-------------------------|
-------------------------|
-------------------------|


----------------------------|
-----2------2------5-7-2~~0-|
---4---4-2----4-2-----------|
----------------------------|
----------------------------|
----------------------------|

---0-----0----4---7--9-------------|
-2---2-0--2-0-----------9--9-10-12-|
----------------------9------------|
-----------------------------------|
-----------------------------------|
-----------------------------------|

0:31
------------------------------------------|
------------------------------------------|
-6-4-6-7-9-7-9-11-13-11-13-14-16-14-16-18-|
------------------------------------------|
------------------------------------------|
------------------------------------------|
(There's another scale but I'm too lazy to do it...)

0:37
------------------------------|
-9~0-7--9---10----------------|
------6---6--------6-7-6---4--|
-------------------------7----|
------------------------------|
------------------------------|


                 !
-----------2-4--------------   (!= Repeat x4 the play 5-4-| on high e)
-----2-3-5-----2--2---0-2---------------------------------|
-6~0----------------2-----2-------------------------------|
----------------------------------------------------------|
----------------------------------------------------------|

0:57 an Amazing Part, I couldn't tab it perfectly sorry.... (PM Me If you figure it out please!
----------------------|
----------------------|
-----------------9-11-|
---------9-11-12------|
-9-11-12--------------|
----------------------| (Repeat)


---------------------|
---------------------|
-9-6------6----------|
----9-7-9---9-7------|
---------------------|
---------------------|  (Repeat)

--------7-9-10-12-14-|
-7-9-10--------------|
---------------------|
---------------------|
---------------------|
---------------------| (repeat)

------------------------|
---------11-14-11-14-11-|
-10-13-14---------------|
------------------------|
------------------------|
------------------------| (repeat)

Repeat from 0:57

Then Repeat All, It's Not Amazing, But If you find mistakes please PM my Youtube Account 
and you will receive Credit!
Tap to rate this tab
 
# A B C D E F G H I J K L M N O P Q R S T U V W X Y Z