Song name
# A B C D E F G H I J K L M N O P Q R S T U V W X Y Z

Anarbor - Brightest Green tab

Anarbor- Brightest Green [Intro]

e--------------------------------------------------------|
B--------------------------------------------------------|
G--------------------------------------------------------|
D-----2--------2-----------------------------------------|
A--2h4-4-4--2h4-4-4-----2--------2---------0--------0----|
E--------------------2h4-4-4--2h4-4-4-3-0h2-2-2--0h2-2-2-|

e-------------------------------------------------------|
B-------------------------------------------------------|
G-------------------------------------------------------|
D----1--------1-----------------------------------------|
A-0h2-2-2--0h2-2-2-3---Back to beginning----------------|
E-------------------------------------------------------|

first tab (: hope it's alriiight.
      h = hammer on
Tap to rate this tab
# A B C D E F G H I J K L M N O P Q R S T U V W X Y Z