Song name
# A B C D E F G H I J K L M N O P Q R S T U V W X Y Z

Anarbor - Let The Games Begin tab

Artist : Anarbor
Song : Let The Games Begin
Album : Free Your Mind

Intro: (this is 100% correct)
e|------------------------------------|
B|------------------------------------|
G|------------------------------------|
D|------------------------------------|
A|--2-2--4-5-5/-----------------------|
E|---------------2-3-3--3-3-3-2-0-----|


Solo: (this is roughly 90% correct, im pretty confident in it but some parts are pretty iffy)

e|-----------------------------------------------------------|
B|---10-12h-12-12-12p-10-------10-12h-12-12-12p-10-----------|
G|-----------------------------------------------------------|
D|-----------------------------------------------------------|
A|-----------------------------------------------------------|
E|-----------------------------------------------------------|

e|----------------------------------------------------------------------|
B|---10-12h-12-12-12--15-14-12-15-14-12-15-14\------17-19h-19-19-19p-17-|
G|----------------------------------------------------------------------|
D|----------------------------------------------------------------------|
A|----------------------------------------------------------------------|
E|----------------------------------------------------------------------|

e|---------------------17-17-19-19-19-19^-19-17-12-9--------------------|
B|---17-19h-19-19-19----------------------------------12----------------|
G|----------------------------------------------------------------------|
D|----------------------------------------------------------------------|
A|----------------------------------------------------------------------|
E|----------------------------------------------------------------------|
Tap to rate this tab
 
# A B C D E F G H I J K L M N O P Q R S T U V W X Y Z