Song name
# A B C D E F G H I J K L M N O P Q R S T U V W X Y Z

Anarbor - Let The Games Begin chords

Highlighted       Show chord diagrams
Ok, so I am absolutely in love with this song, and I just spent my last
2 hours tabbing this song by ear... I could only find one version of 
the tab for this song, and it was only part of it, so I decided to put
up the whole song for everyone else who loves it =]



Intro & verse 1:

e|------------------------------------|
B|------------------------------------|
G|------------------------------------|
D|------------------------------------|    X6
A|--2-2--4-5-5------------------------|
E|---------------2-3-3--3-3-3-2-0-----|

So baby tell me
What's the deal with your new boyfriend?
He wears a hat to the side
With a bill he doesn't want anyone to bend

(BANG! BANG! )
I heard a knock at the door
She walked in
It's a sin to keep her begging for more

(BANG! BANG! )
I watched her clothes hit the floor
I could never say no


Chorus:

        Bm               D
It's a game, she's to blame
                   G            E
But who's keeping score?
        Bm           D
You can tell by my grin
                      G         E
That I've done this before
G     E
        So let the games begin


Verse 2:

e|------------------------------------|
B|------------------------------------|
G|------------------------------------|
D|------------------------------------|    X5
A|--2-2--4-5-5------------------------|
E|---------------2-3-3--3-3-3-2-0-----|


So baby tell me
How does it feel to break and bend?
You just can't choose between us two
It's a game you'll always lose

(BANG! BANG! )
I hope that's him at the door
Will the truth finally find her?

(BANG! BANG! )
Will she run will she hide?
The truth's creeping up slow


Chorus:

        Bm               D
It's a game, she's to blame
                   G            E
But who's keeping score?
        Bm           D
You can tell by my grin
                      G         E
That I've done this before
G     E
        So let the games begin


Bridge:

e|----------11-------------9-----------5----------9---|
B|--------------------9----------------------9--------|
G|-----9----------9------9--------6-------9-----9-----|
D|--11---11--------------------7-----7----------------|    X4
A|----------------------------------------------------|
E|----------------------------------------------------|


It's the thrill
It's the thrill
It's the thrill that I live for

It's the thrill
It's the thrill
It's the thrill that I live for


           Bm
It's the thrill (it's the thrill)
           D
It's the thrill (it's the thrill)
           G             E 
It's the thrill that I live for
           Bm
It's the thrill
           D
It's the thrill
           G             
It's the thrill that 

e|----------------|
B|----------------|
G|----------------|
D|----------------|    
A|-------------2--|
E|------3-2-0-----|  

I live for

So let the games begin


Solo:

e|----------------------------------------------------------------------|
B|--10 12 12 12 10-----10 12 12 12 10----10 12 12 12 12 12 15 14 12 15--|
G|-----------------11-----------------11--------------------------------|
D|----------------------------------------------------------------------|
A|----------------------------------------------------------------------|
E|----------------------------------------------------------------------|

e|---------------12 14 14 14 12 10 12 14 14 14 12 14 17 17 17 17 19 19 -|
B|--14 12 15 14 --------------------------------------------------------|
G|----------------------------------------------------------------------|
D|----------------------------------------------------------------------|
A|----------------------------------------------------------------------|
E|----------------------------------------------------------------------|

e|--19 19 19 20 19 17 14 14 12 10 --------------------------------------|
B|--------------------------------12------------------------------------|
G|----------------------------------------------------------------------|
D|----------------------------------------------------------------------|
A|----------------------------------------------------------------------|
E|----------------------------------------------------------------------|


Chorus:

        Bm               D
It's a game, she's to blame
                   G            E
But who's keeping score?
        Bm           D
You can tell by my grin
                      G         E
That I've done this before


        Bm               D
It's a game, she's to blame
             A        E
But who's keeping score?
        Bm       D
I'm not in it to win
                   A            
You can tell by my grin
                      E
That I've done this before
G       E
          So let the games begin
G       E                      
          Yeah, let the games begin
Tap to rate this tab
 
# A B C D E F G H I J K L M N O P Q R S T U V W X Y Z