Guitaretab - guitar tabs
Song name
# A B C D E F G H I J K L M N O P Q R S T U V W X Y Z

Anarbor - Passion For Publication tab

Passion For Publication - Anarbor
D tuning
Rhythm Guitar

ill try to get the lead guitar tab up soon

Intro/Verse
|----------------------------------------------------|
|----------------------------------------------------|
|----------------4444------------------44444444------|
|-777-7777--222--4444---777-7777--222--44444444------|x2
|-777-7777--222--2222---777-7777--222--22222222------|
|-777-7777--222---------777-7777--222----------------|
 (It's the calming before the storm)

Chorus
|--------------------------------------------------------------|
|--------------------------------------------------------------|
|--------------4------------4-----6----------------------------|
|-7------2-----4-x4--7------4-x4--6-x2--9-----7~-7~-7~-7~-7----|
|-7-x8---2-x4--2-----7-x8---2-----4-----9-x2—-7~-7~-7~-7~-7----|
|-7------2-----------7------------------9-----7~-7~-7~-7~-7----|
(Just be pretty but na´ve)

Verse
|----------------------------------------------------|
|----------------------------------------------------|
|----------------4444------------------44444444------|
|-777-7777--222--4444---777-7777--222--44444444------|x2
|-777-7777--222--2222---777-7777--222--22222222------|
|-777-7777--222---------777-7777--222----------------|
(It's the low before the high)

Verse 2
|----------------------------------------------------|
|----------------------------------------------------|
|----------------4~--------------------44444444------|
|-7~--------2~---4~-----7~--------2~---44444444------|
|-7~--------2~---2~-----7~--------2~---22222222------|
|-7~--------2~----------7~--------2~-----------------|
 (And I'll be counting the days)
[ Tab from: http://www.guitaretab.com/a/anarbor/192074.html ]
Chorus                                        then                 
|-------------------------------------------| |-------------------|
|-------------------------------------------| |-------------------|
|--------------4------------4-----6-6-------| |--66----44--4-4-4--|
|-7------2-----4-x4--7------4-x4--6-6—-9-9--| |--66-77-44--4-4-4--|x4
|-7-x8---2-x4--2-----7-x8---2-----4-4--9-9--| |--44—77-22--2-2-2--|
|-7------2-----------7-----------------9-9--| |-----77------------|
(Just be pretty but na´ve)

Verse 3
“Just be pretty but naive
 Anything you hear is what you believe
 Let the rhyme get stuck in your head”
|----------------------|
|----------------------|
|----------------4-4---|
|-2-2------------4-4---|
|-2-2------------2-2---|
|-2-2------------------|
…wished you had undressed me in your…

Chorus                                        then                 
|-------------------------------------------| |-------------------|
|-------------------------------------------| |-------------------|
|--------------4------------4-----6-6-------| |--66----44--4-4-4--|
|-7------2-----4-x4--7------4-x4--6-6—-9-9--| |--66-77-44--4-4-4--|x2
|-7-x8---2-x4--2-----7-x8---2-----4-4--9-9--| |--44—77-22--2-2-2--|
|-7------2-----------7-----------------9-9--| |-----77------------|
 (Just be pretty but na´ve)                    

|---------------------------------------|
|---------------------------------------|
|-666-----44444444--666-----4444444444--|
|-666-777-44444444--666-777-4444444444--|
|-444-777-22222222--444-777-2222222222--|
|-----777---------------777-------------|
  *** *** ********  *** *** *******

End                                       
|-----------------------------------------------|
|-----------------------------------------------|
|--------------4------------4-----6-6-----------|
|-7------2-----4-x4--7------4-x4--6-6—-9-9—-7~--|
|-7-x8---2-x4--2-----7-x8---2-----4-4--9-9—-7~--|
|-7------2-----------7-----------------9-9—-7~--|
(And what they don't tell you in church is)

Please email me if i made any mistakes at bljeep90@yahoo.com

Also check out www.musicianmatch.com/bljeep90
Related for Passion For Publication tab