Song name
# A B C D E F G H I J K L M N O P Q R S T U V W X Y Z

Anarbor - Love Instead Acoustic chords

Highlighted       Show chord diagrams
Intro : ( C#m, G#m, F#) 

e-----------------------------------------------------------------------------------|
B-----------------------------------------------------------------------------------|
G-----------------------------------------------------------------------------------|
D-11-11---11-11---11-11-----6-6---6-6---6-6-----4-4---4-4---4-4-----4-4---4-4---4-4-|
A-11-11---11-11---11-11-----6-6---6-6---6-6-----4-4---4-4---4-4-----4-4---4-4---4-4-|
E-9--9----9--9----9--9------4-4---4-4---4-4-----2-2---2-2---2-2-----2-2---2-2---2-2-|

Verse : Same as Intro(Palm Muted) 
C#m            G#m             F#
I am weak to your temptation, oh
F#
with imagination comes obligation
C#m            G#m             
I love you to death, but to you
  F#               
I am, well I love you to death
F#
but to you, I'm already dead

(Intro chord prog without palm mute) 
I'm already dead
I'm already dead
      (Pause) 
I'm a mess between my heart and head

Chorus : 
E            B                 C#m
I feel like I'm just floating away, yeah
    A
oh God, I wish that I could stay
E              B                     C#m
It's hard, I admit, but baby don't quit, yeah
A
We can make it, yeah, we can make it


C#m(Palm Muted)

(2nd VERSE) 
                   G#m             F#
And I am weak to your affection, babe
All I need is your attention
I love you to death, but to you
I am, well I love you to death
but to you, I'm already dead
I'm already dead
I'm already dead
I'm a mess between my heart and head

(Back to Chorus)

Rhythm for solo is the same as the chorus

Solo : 

e-------------------------------|
B----------9--12--9--9h10p9-----|
G--9-9/11-----------------------|
D-------------------------------|


e-----------------------------------7--9-7------------------|
B--10-9--7---------10--9--7---------------------------------|
G-----------------------------------------------------------|
D-----------9-------------------9---------------------------|

E                  B           
Don't trouble your pretty little head
         C#m
There's only room for love
         A
There's only room for love instead

(Back to chorus) 




And that's pretty much it. :D 
Tabbed By, Cassandra 
Tap to rate this tab
# A B C D E F G H I J K L M N O P Q R S T U V W X Y Z