Anarbor - Mr Big Shot chords

Highlighted       Show chord diagrams
Intro: 

E|---------------------------------|
B|---------------------------------|
G|---------------------------------|
D|-----4--3--1--------0------------|
A|--------------2--4-----4---------|
E|--2------------------------------|  X 4


F#
Oh, you're Mr. Bigshot
A#                           D#m
And you think that you got a lot.
                        B
Do you mean to tell me, I'm not worthy?
F#
Oh, you're Mr. Bigshot
A#                               D#m
Everything that you're gonna get caught.
                       B          Bm
Been wonderin' lately, you're not ready.


D#m                              A#
Oh, you think that you're hot as hell.
                              B
Oh, you think that they can't tell.
                      C#
But deep down, you're just a baby.


F#                   A#
Someday, you'll come knockin' on my door.
         D#m
And I'll leave you lonely,
B                     F#
I don't want you anymore.
             A#
My bones are stronger than before.
         D#m
So don't come 'round my way,
B              Bm
I'll kick your ass right out the door.


E|---------------------------------|
B|---------------------------------|
G|---------------------------------|
D|-----4--3--1--------0------------|
A|--------------2--4-----4---------|
E|--2------------------------------|  X 2
Music...

F#
Oh, you're Mr. Bigshot
A#                           D#m
Yeah, you really think you hit the spot.
                        B
But someone told me, you're all stories.
F#
Oh, you're Mr. Bigshot
A#                               D#m
And life's not about what you've got,
                       B          Bm
So don't you tell me, I'm not happy.


D#m                              A#
Oh, you think that you're hot as hell.
                              B
Oh, you think that they can't tell.
                      C#
But deep down, you're just a baby.


F#                   A#
Someday, you'll come knockin' on my door.
         D#m
And I'll leave you lonely,
B                     F#
I don't want you anymore.
             A#
My bones are stronger than before.
         D#m
So don't come 'round my way,
B              Bm
I'll kick your ass right out the door.


E|---------------------------------|
B|---------------------------------|
G|---------------------------------|
D|-----4--3--1--------0------------|
A|--------------2--4-----4---------|
E|--2------------------------------|  X 4
Is that all you got, Mr. Bigshot?
Is that all you got, Mr. Bigshot?


D#m                              A#
Oh, you think that you're hot as hell.
                              B
Oh, you think that they can't tell.
                      C#
But deep down, you're just a baby.


(Ukelele)
F#                   A#
Someday, you'll come knockin' on my door.
         D#m
And I'll leave you lonely,
B                     F#
I don't want you anymore.
             A#
My bones are stronger than before.
         D#m
So don't come 'round my way,
B              Bm                F#
I'll kick your ass right out the door.
           A#
Whoa-oh-ah-oh,
          D#m
Whoa-oh-whoa.
B              Bm                F#
I'll kick your ass right out the door. 


Outro:
E|---------------------------------|
B|---------------------------------|
G|---------------------------------|
D|-----4--3--1--------0------------|
A|--------------2--4-----4---------|
E|--2------------------------------|  X 4Intro: 

E|---------------------------------|
B|---------------------------------|
G|---------------------------------|
D|-----4--3--1--------0------------|
A|--------------2--4-----4---------|
E|--2------------------------------|  X 4


F#
Oh, you're Mr. Bigshot
A#                           D#m
And you think that you got a lot.
                        B
Do you mean to tell me, I'm not worthy?
F#
Oh, you're Mr. Bigshot
A#                               D#m
Everything that you're gonna get caught.
                       B          Bm
Been wonderin' lately, you're not ready.


D#m                              A#
Oh, you think that you're hot as hell.
                              B
Oh, you think that they can't tell.
                      C#
But deep down, you're just a baby.


F#                   A#
Someday, you'll come knockin' on my door.
         D#m
And I'll leave you lonely,
B                     F#
I don't want you anymore.
             A#
My bones are stronger than before.
         D#m
So don't come 'round my way,
B              Bm
I'll kick your ass right out the door.


E|---------------------------------|
B|---------------------------------|
G|---------------------------------|
D|-----4--3--1--------0------------|
A|--------------2--4-----4---------|
E|--2------------------------------|  X 2
Music...

F#
Oh, you're Mr. Bigshot
A#                           D#m
Yeah, you really think you hit the spot.
                        B
But someone told me, you're all stories.
F#
Oh, you're Mr. Bigshot
A#                               D#m
And life's not about what you've got,
                       B          Bm
So don't you tell me, I'm not happy.


D#m                              A#
Oh, you think that you're hot as hell.
                              B
Oh, you think that they can't tell.
                      C#
But deep down, you're just a baby.


F#                   A#
Someday, you'll come knockin' on my door.
         D#m
And I'll leave you lonely,
B                     F#
I don't want you anymore.
             A#
My bones are stronger than before.
         D#m
So don't come 'round my way,
B              Bm
I'll kick your ass right out the door.


E|---------------------------------|
B|---------------------------------|
G|---------------------------------|
D|-----4--3--1--------0------------|
A|--------------2--4-----4---------|
E|--2------------------------------|  X 4
Is that all you got, Mr. Bigshot?
Is that all you got, Mr. Bigshot?


D#m                              A#
Oh, you think that you're hot as hell.
                              B
Oh, you think that they can't tell.
                      C#
But deep down, you're just a baby.


(Ukelele)
F#                   A#
Someday, you'll come knockin' on my door.
         D#m
And I'll leave you lonely,
B                     F#
I don't want you anymore.
             A#
My bones are stronger than before.
         D#m
So don't come 'round my way,
B              Bm                F#
I'll kick your ass right out the door.
           A#
Whoa-oh-ah-oh,
          D#m
Whoa-oh-whoa.
B              Bm                F#
I'll kick your ass right out the door. 


Outro:
E|---------------------------------|
B|---------------------------------|
G|---------------------------------|
D|-----4--3--1--------0------------|
A|--------------2--4-----4---------|
E|--2------------------------------|  X 4Intro: 

E|---------------------------------|
B|---------------------------------|
G|---------------------------------|
D|-----4--3--1--------0------------|
A|--------------2--4-----4---------|
E|--2------------------------------|  X 4


F#
Oh, you're Mr. Bigshot
A#                           D#m
And you think that you got a lot.
                        B
Do you mean to tell me, I'm not worthy?
F#
Oh, you're Mr. Bigshot
A#                               D#m
Everything that you're gonna get caught.
                       B          Bm
Been wonderin' lately, you're not ready.


D#m                              A#
Oh, you think that you're hot as hell.
                              B
Oh, you think that they can't tell.
                      C#
But deep down, you're just a baby.


F#                   A#
Someday, you'll come knockin' on my door.
         D#m
And I'll leave you lonely,
B                     F#
I don't want you anymore.
             A#
My bones are stronger than before.
         D#m
So don't come 'round my way,
B              Bm
I'll kick your ass right out the door.


E|---------------------------------|
B|---------------------------------|
G|---------------------------------|
D|-----4--3--1--------0------------|
A|--------------2--4-----4---------|
E|--2------------------------------|  X 2
Music...

F#
Oh, you're Mr. Bigshot
A#                           D#m
Yeah, you really think you hit the spot.
                        B
But someone told me, you're all stories.
F#
Oh, you're Mr. Bigshot
A#                               D#m
And life's not about what you've got,
                       B          Bm
So don't you tell me, I'm not happy.


D#m                              A#
Oh, you think that you're hot as hell.
                              B
Oh, you think that they can't tell.
                      C#
But deep down, you're just a baby.


F#                   A#
Someday, you'll come knockin' on my door.
         D#m
And I'll leave you lonely,
B                     F#
I don't want you anymore.
             A#
My bones are stronger than before.
         D#m
So don't come 'round my way,
B              Bm
I'll kick your ass right out the door.


E|---------------------------------|
B|---------------------------------|
G|---------------------------------|
D|-----4--3--1--------0------------|
A|--------------2--4-----4---------|
E|--2------------------------------|  X 4
Is that all you got, Mr. Bigshot?
Is that all you got, Mr. Bigshot?


D#m                              A#
Oh, you think that you're hot as hell.
                              B
Oh, you think that they can't tell.
                      C#
But deep down, you're just a baby.


(Ukelele)
F#                   A#
Someday, you'll come knockin' on my door.
         D#m
And I'll leave you lonely,
B                     F#
I don't want you anymore.
             A#
My bones are stronger than before.
         D#m
So don't come 'round my way,
B              Bm                F#
I'll kick your ass right out the door.
           A#
Whoa-oh-ah-oh,
          D#m
Whoa-oh-whoa.
B              Bm                F#
I'll kick your ass right out the door. 


Outro:
E|---------------------------------|
B|---------------------------------|
G|---------------------------------|
D|-----4--3--1--------0------------|
A|--------------2--4-----4---------|
E|--2------------------------------|  X 4
Tap to rate this tab
 
# A B C D E F G H I J K L M N O P Q R S T U V W X Y Z