Guitaretab - guitar tabs
Song name
# A B C D E F G H I J K L M N O P Q R S T U V W X Y Z

Anarbor - Where The Wild Things Are Monsters tab

Artist: Anarbor
Song: Where The Wild Things Are (Monsters)
Album: Free Your Mind
Tabbed by: gustavoaraujo999@hotmail.com

It's not great, but it should be somewhat useful.

[Verse 1]
e|------------------|-----------------------|
B|------------------|-----------------------|
G|---------7--------|-----77----------77----|
D|-5-------7--[x16]-|-555-77-77---555-77-77-|
A|-5-[x16]-5--------|-555-55-77---555-55-77-| [x2]
E|-3----------------|-333----55---333----55-|

[Chorus 1]
e|-------------------------|------|------------------|-------------------|
B|-------------------------|------|------------------|-------------------|
G|----------7--------------|------|----------7-------|-------------------|
D|-5--------7-[x8]--7------|-[x2]-|--5-------7-[x16]-|-5-------9999-7777-|
A|-5-[x16]--5-------7-[x8]-|------|--5-[x16]-5-------|-5-[x16]-9999-7777-|
E|-3----------------5------|------|--3---------------|-3-------7777-5555-|

[Pre-Verse]
e|-----------|
B|-----------|
G|----77-----|
D|-55-77-77--|
A|-55-55-77--|
E|-33----55--|

[Verse 2]
e|------------------|--(     not right    )--------|
B|------------------|--(  but sounds good )--------|
G|---------7--------|---------------------------7~-|
D|-5-------7--[x16]-|-9~-7~--2~--------7777-----7~-|
A|-5-[x16]-5--------|-9~-7~--2~--------7777-----5~-|
E|-3----------------|-7~-5~--0~--5h7-7-5555--------|
[ Tab from: http://www.guitaretab.com/a/anarbor/238184.html ]
[Chorus 1]
e|-------------------------|------|------------------|-------------------|
B|-------------------------|------|------------------|-------------------|
G|----------7--------------|------|----------7-------|-------------------|
D|-5--------7-[x8]--7------|-[x2]-|--5-------7-[x16]-|-5-------9999-7777-|
A|-5-[x16]--5-------7-[x8]-|------|--5-[x16]-5-------|-5-[x16]-9999-7777-|
E|-3----------------5------|------|--3---------------|-3-------7777-5555-|

[Interlude]
e|----------------------------------------|-----(guitar 1 plays)-------|
B|----------------------------------------|----------------------------|
G|----------------------------------------|-----11-12-14-(12-11)-------|
D|-55-555-555-555---77-777-777-777---[x2]-|--12------------------------|
A|-55-555-555-555---77-777-777-777--------|----------------------------|
E|-33-333-333-333---55-555-555-555--------|----------------------------|

[Bridge]
e|----------------------------------------|--(probably not right)--------|
B|----------------------------------------|--(but sounds good   )--------|
G|----------------------------------------|------------------------------|
D|-55-555-555-555---77-777-777-777---[x2]-|-999-888---777-666------------|
A|-55-555-555-555---77-777-777-777--------|-999-999---777-777------------|
E|-33-333-333-333---55-555-555-555--------|-777-666---555-444------------|

[Chorus 2]
e|--------------|---------------------|
B|--------------|---------------------|
G|------7-------|---------------------|
D|-55~--7-[x16]-|-55~--9------7-------|
A|-55~--5-------|-55~--9-[x8]-7-[x8]--|
E|-33~----------|-33~--7------5-------|

[Outro]
e|--------------------------------|
B|--------------------------------|
G|--------------------------------|
D|-55-555-555-555--77-777-777-777-|
A|-55-555-555-555--77-777-777-777-|
E|-33-333-333-333--55-555-555-555-|

e|------------------------------------------------------|
B|------------------------------------------------------|
G|---------------------------------77--------77---------|
D|-55-555-555-555---9999-7777---55-77-77--33-77-77--5~--|
A|-55-555-555-555---9999-7777---55-55-77--33-55-77--5~--|
E|-33-333-333-333---7777-5555---33----55--55----55--3~--|
Related for Where The Wild Things Are Monsters tab
×
Best way to learn
"Where The Wild Things Are Monsters"