Song name
# A B C D E F G H I J K L M N O P Q R S T U V W X Y Z

Anarbor - Always Dirty Never Clean tab

Artist: Anarbor
Song: Always Dirty, Never Clean
Album: Free Your Mind
Tabbed by: gustavoaraujo999@hotmail.com

I am aware that I tabbed only some parts of each guitar, but I think it sounds nice this way. 
If you tabbed any other parts send me an email, I will put it up and give you credit.

[Intro]
e|-----------------------------------------------------|
B|-----------------------------------------------------|
G|-9-9-9-9--10101010--7-7-7-7--9-9-9-9-----------------|
D|-9-9-9-9--10101010--7-7-7-7--9-9-9-9---[x2]----------|
A|-7-7-7-7--8-8-8-8---5-5-5-5--7-7-7-7-----------------|
E|-----------------------------------------------------|

[Verse 1]
e|-----------------------------------------------------|
B|-----------------------------------------------------|
G|-9-9-9-9--10101010--7-7-7-7--9-9-9-9-----------------|
D|-9-9-9-9--10101010--7-7-7-7--9-9-9-9---[x4]----------|
A|-7-7-7-7--8-8-8-8---5-5-5-5--7-7-7-7-----------------|
E|-----------------------------------------------------|

[Chorus]
e|----------------------------------------------|
B|----------------------------------------------|
G|-7-7-------------------7-7--------------------|
D|-7-7--2-2--5-5--7-7\---7-7--7-7--5-5--7-7\----|
A|-5-5--2-2--5-5--7-7\---5-5--7-7--5-5--7-7\----|
E|------0-0--3-3--5-5\--------5-5--3-3--5-5\----|

e|----------------------------------------------------------|
B|--------------------(the other guitar plays this ->)-(10~)|
G|-7-7------------------------------------------------------|
D|-7-7--7-7--5-5--2-2---3-3-3-3-3-3-3-3--5-5-5-5-5-5-5--7~--|
A|-5-5--7-7--5-5--2-2---3-3-3-3-3-3-3-3--5-5-5-5-5-5-5--7~--|
E|------5-5--3-3--0-0---1-1-1-1-1-1-1-1--3-3-3-3-3-3-3--5~--|

[Interlude]
e|-----------------------------------------------------|
B|-----------------------------------------------------|
G|-9-9-9-9--10101010--7-7-7-7--9-9-9-9-----------------|
D|-9-9-9-9--10101010--7-7-7-7--9-9-9-9---[x2]----------|
A|-7-7-7-7--8-8-8-8---5-5-5-5--7-7-7-7-----------------|
E|-----------------------------------------------------|

[Verse 2]
e|-----------------------------------------------------|
B|-----------------------------------------------------|
G|-9-9-9-9--10101010--7-7-7-7--9-9-9-9-----------------|
D|-9-9-9-9--10101010--7-7-7-7--9-9-9-9---[x4]----------|
A|-7-7-7-7--8-8-8-8---5-5-5-5--7-7-7-7-----------------|
E|-----------------------------------------------------|

[Chorus]
e|----------------------------------------------|
B|----------------------------------------------|
G|-7-7-------------------7-7--------------------|
D|-7-7--2-2--5-5--7-7\---7-7--7-7--5-5--7-7\----|
A|-5-5--2-2--5-5--7-7\---5-5--7-7--5-5--7-7\----|
E|------0-0--3-3--5-5\--------5-5--3-3--5-5\----|

e|----------------------------------------------------------|
B|----------------------------------------------------------|
G|-7-7------------------------------------------------------|
D|-7-7--7-7--5-5--2-2---3-3-3-3-3-3-3-3--5-5-5-5-5-5-5--7~--|
A|-5-5--7-7--5-5--2-2---3-3-3-3-3-3-3-3--5-5-5-5-5-5-5--7~--|
E|------5-5--3-3--0-0---1-1-1-1-1-1-1-1--3-3-3-3-3-3-3--5~--|

[Bridge]
e|-------------------------------------------------------------------------|
B|-1010101010101010--9-9-9-9-9-9-9-9--8-8-8-8-8-8-8-8---7-7-7-7-7-7-7-7-7--|
G|-------------------------------------------------------------------------|
D|-------------------------------------------------------------------[x2]--|
A|-------------------------------------------------------------------------|
E|-------------------------------------------------------------------------|

e|-------------------------------------------------------------------|
B|-1010101010101010--999999999999--88888888888--777777777777---------|
G|-------------------------------------------------------------------|
D|-------------------------------------------------------------[x2]--|
A|----(wah + tremolo picking ^^^)------------------------------------|
E|-------------------------------------------------------------------|

[Last Chorus]
e|----------------------------------------------|
B|----------------------------------------------|
G|-7-7-------------------7-7--------------------|
D|-7-7--7-7--5-5--2-2\---7-7--------------------|
A|-5-5--7-7--5-5--2-2\---5-5--------------------|
E|------5-5--3-3--0-0\--------------------------|
   * *  * *  * *  * *         
e|----------------------------------------------|
B|----------------------------------------------|
G|-7-7------------------------------------------|
D|-7-7--7-7--5-5--2-2---3-3-3-3-3-5-5-5-5-5-----|
A|-5-5--7-7--5-5--2-2---3-3-3-3-3-5-5-5-5-5-----|
E|------5-5--3-3--0-0---1-1-1-1-1-3-3-3-3-3-----|

e|----------------------------------------------|
B|----------------------------------------------|
G|-7-7-------------------7-7--------------------|
D|-7-7--7-7--5-5--2-2\---7-7--7-7--5-5--7-7\----|
A|-5-5--7-7--5-5--2-2\---5-5--7-7--5-5--7-7\----|
E|------5-5--3-3--0-0\--------5-5--3-3--5-5\----|

e|-------------------------------------------------------|
B|-------------------------------------------------------|
G|-7-7---------------------------------------------------|
D|-7-7--7-7--5-5--2-2---3-3-3-3-3-3-3-3--5-5-5-5-5-5-5---|
A|-5-5--7-7--5-5--2-2---3-3-3-3-3-3-3-3--5-5-5-5-5-5-5---|
E|------5-5--3-3--0-0---1-1-1-1-1-1-1-1--3-3-3-3-3-3-3---|

e|------------------------------------------------------|
B|------------------------------------------------------|
G|------------------------------------------------------|
D|-3-3-3-3-3-3-3-3--5-5-5-5-5-5-5-5--7--7--7--7--7--7\--|
A|-3-3-3-3-3-3-3-3--5-5-5-5-5-5-5-5--7--7--7--7--7--7\--|
E|-1-1-1-1-1-1-1-1--3-3-3-3-3-3-4-4--5--5--5--5--5--5\--|
Tap to rate this tab
 
# A B C D E F G H I J K L M N O P Q R S T U V W X Y Z