Guitaretab - guitar tabs
Song name
# A B C D E F G H I J K L M N O P Q R S T U V W X Y Z

Anarbor - Let The Games Begin tab

Tabbed by gustavoaraujo999@hotmail.com

I saw the intro tab and it had some mistakes, so I did this. 
I'm pretty sure it's 100% correct. It's kinda big so I divided it in parts.

e|---------------------|----------------------|
B|-10h12-12-12-10------|-10h12-12-12-10-------|
G|----------------11---|----------------11----|
D|---------------------|----------------------|
A|---------------------|----------------------|
E|---------------------|----------------------|
[ Tab from: http://www.guitaretab.com/a/anarbor/245216.html ]
e|--------------------------------------------------|
B|--10h12-12-12-12-12---15-14-12-15-14-12-----------|
G|----------------------------------------15-14-----|
D|--------------------------------------------------|
A|--------------------------------------------------|
E|--------------------------------------------------|

e|-12h14-14-14-12-10-|-12h14-14-14-12-14-|---17171717-19191919-19^20-|
B|-------------------|-------------------|---------------------------|
G|-------------------|-------------------|---------------------------|
D|-------------------|-------------------|---------------------------|
A|-------------------|-------------------|---------------------------|
E|-------------------|-------------------|---------------------------|

e|19-17-14-/14-12-10-----|
B|-------------------12--|
G|-----------------------|
D|-----------------------|
A|-----------------------|
E|-----------------------|

Please comment or send me an email if anything is wrong.
Related for Let The Games Begin tab
×
Best way to learn
"Let The Games Begin"