Anarbor - Let The Games Begin Acoustic chords

Highlighted       Show chord diagrams
Okay, I watched a video on YouTube and they played an acoustic version of it. It got 
but I thought you guys might like this. :D
When it gets to the 'BANG BANG!' part, I like to tap my guitar's bridge. So feel free to 
that, too. (:


INTRO/VERSE: Play six times
e|------------------------------------|
B|------------------------------------|
G|------------------------------------|
D|--7-7--9--10-10--2-3-3--3-3-3-2-0---|  x6
A|--7-7--9--10-10--2-3-3--3-3-3-2-0---|
E|--7-7--9--10-10--2-3-3--3-3-3-2-0---|

So baby tell me
What's the deal with your new boyfriend?
He wears a hat to the side with a bill he doesn't want anyone to bend

BANG BANG!
I heard a knock at the door
She walked in, it's a sin to keep her begging for more
BANG BANG!
I watched her clothes hit the floor
I could never say no

CHORUS:

        Bm             D
It's a game, she's to blame
                   G        Em
But who's keeping score?
         Bm         D                        G       Em
You can tell by my grin that I've done this before
G    Em
         So let the games begin


VERSE:
e|------------------------------------|
B|------------------------------------|
G|------------------------------------|
D|--7-7--9--10-10--2-3-3--3-3-3-2-0---|  x6
A|--7-7--9--10-10--2-3-3--3-3-3-2-0---|
E|--7-7--9--10-10--2-3-3--3-3-3-2-0---|


So baby tell me
How does it feel to break and bend?
You just can't choose between us two
It's a game you'll always lose

BANG BANG!
I hope that's him at the door
Will the truth finally find her?
BANG BANG!
Will she run, will she hide?
The truth's creeping up slow

CHORUS:

        Bm             D
It's a game, she's to blame
                   G        Em
But who's keeping score?
         Bm         D                        G       Em
You can tell by my grin that I've done this before
G    Em
         So let the games begin


Bridge: Play four times

e|----------11-------------9-----------5----------9---|
B|--------------------9----------------------9--------|
G|-----9----------9------9--------6-------9-----9-----|
D|--11---11--------------------7-----7----------------|    x4
A|----------------------------------------------------|
E|----------------------------------------------------|


It's the thrill
It's the thrill
It's the thrill that I live for

It's the thrill
It's the thrill
It's the thrill that I live for


           Bm
It's the thrill (it's the thrill)
           D
It's the thrill (it's the thrill)
           G             Em
It's the thrill that I live for
           Bm
It's the thrill
           D
It's the thrill
           G
It's the thrill that

e|----------------|
B|----------------|
G|----------------|
D|----------------|
A|-------------2--|
E|------3-2-0-----|

I live for

So let the games begin

SOLO:(SOLO COMING SOON! I need to figure it out!)

Chorus:

        Bm               D
It's a game, she's to blame
                   G      Em
But who's keeping score?
        Bm           D
You can tell by my grin
                      G      Em
That I've done this before


        Bm               D
It's a game, she's to blame
             A        Em
But who's keeping score?
        Bm       D
I'm not in it to win
                   A
You can tell by my grin
                      Em
That I've done this before
G       Em
           So let the games begin
G       Em
           Yeah, let the games begin

(If you notice anything wrong, please feel free to send me a message!)
Tap to rate this tab
 
# A B C D E F G H I J K L M N O P Q R S T U V W X Y Z