Song name
# A B C D E F G H I J K L M N O P Q R S T U V W X Y Z

Anarbor - Halfway Sober tab

Intro x2
     D      G
 e|------------------------|
 B|------------------------|
 G|--7---------------------|
 D|--7------5--------------| 
 A|--5--x8--5--x8----------|
 E|---------3--------------|

 e|---------------------|
 B|-----7b-7------------|
 G|---------------------|
 D|----------7/9--------| x2
 A|---------------------|
 E|---------------------|
Lead fill (you'll know when it comes in)

----------------------------------------------------------------------------

Verse (Rhythm)
   G            D           F#           B
 e|------------------------------------------------------------|
 B|------------------------------------------------------------|
 G|-------------7-77-7-77-7--------------4-44-4-44-4-----------|
 D|-5-55-5-55-5-7-77-7-77-7-4-44-4-44-4--4-44-4-44-4-----------|
 A|-5-55-3-55-5-5-55-5-55-5-4-44-4-44-4--2-22-2-22-2-----------|
 E|-3-33-3-33-3-------------2-22-2-22-2------------------------|
PM    ..  ..      ..   ..     ..   ..      ..   ..

    G           Em        A
 e|------------------------------------------------------------|
 B|------------------------------------------------------------|
 G|------------------------------------------------------------|
 D|-5-55-5-55-5-2-22-2-22-7-77-7-77-7-7-7-77-7-77-7------------|
 A|-5-55-3-55-5-2-22-2-22-7-77-7-77-7-7-7-77-7-77-7------------|
 E|-3-33-3-33-3-0-00-0-00-5-55-5-55-5-5-5-55-5-55-5------------|
PM    ..   ..     ..   ..   ..   ..   .   ..   ..
Play both parts twice.


Verse (Lead)
 e|---------------------------|
 B|---/17-15-12---(10)--------|
 G|---/16-14-11---(9)---------| (Kinda sketchy just play around with that)
 D|---------------------------| The (9/10) is in the second part of the verse when he strums
 A|---------------------------| these little notes you'll hear it.
 E|---------------------------|

----------------------------------------------------------------------------

Pre Chorus
    G     Gm
 e|-3-----3------|
 B|-3-----3------|
 G|-4-----3------|
 D|-5-----5------|
 A|-5-----5------|
 E|-3-----3------|
Just look into my eyes, they'll never lie.

----------------------------------------------------------------------------

Chorus (Rhythm)
     D      G
 e|------------------------|
 B|------------------------|
 G|--7---------------------|
 D|--7------5--------------| x2
 A|--5--x8--5--x8----------|
 E|---------3--------------|
I'm only half way sober...
 
   G     Gm
 e|-3-----3------|
 B|-3-----3------|
 G|-4-----3------|
 D|-5-----5------|
 A|-5-----5------|
 E|-3-----3------|
When words got me down...

Lead fills
 e|---------------------|
 B|--5b-----------------|
 G|---------9/12--------|
 D|---------------------| you'll know when they come in.
 A|---------------------|
 E|---------------------|

----------------------------------------------------------------------------

Post Chorus
   G            D           F#           B
 e|------------------------------------------------------------|
 B|------------------------------------------------------------|
 G|-------------7-77-7-77-7--------------4-44-4-44-4-----------|
 D|-5-55-5-55-5-7-77-7-77-7-4-44-4-44-4--4-44-4-44-4-----------|
 A|-5-55-3-55-5-5-55-5-55-5-4-44-4-44-4--2-22-2-22-2-----------|
 E|-3-33-3-33-3-------------2-22-2-22-2------------------------|
PM    ..  ..      ..   ..     ..   ..      ..   ..

    G           Em        A
 e|------------------------------------------------------------|
 B|------------------------------------------------------------|
 G|------------------------------------------------------------|
 D|-5-55-5-55-5-2-22-2-22-7-77-7-77-7-7-7-77-7-77-7------------|
 A|-5-55-3-55-5-2-22-2-22-7-77-7-77-7-7-7-77-7-77-7------------|
 E|-3-33-3-33-3-0-00-0-00-5-55-5-55-5-5-5-55-5-55-5------------|
PM    ..   ..     ..   ..   ..   ..   .   ..   ..

The lead for this is barely audible but if you wanna 
play it it's pretty much the same thing as the lead in the first verse.
 Just mess around with it.

----------------------------------------------------------------------------

Verse 2 (Rhythm)
   G            D           F#           B
 e|------------------------------------------------------------|
 B|------------------------------------------------------------|
 G|-------------7-77-7-77-7--------------4-44-4-44-4-----------|
 D|-5-55-5-55-5-7-77-7-77-7-4-44-4-44-4--4-44-4-44-4-----------|
 A|-5-55-3-55-5-5-55-5-55-5-4-44-4-44-4--2-22-2-22-2-----------|
 E|-3-33-3-33-3-------------2-22-2-22-2------------------------|
PM    ..  ..      ..   ..     ..   ..      ..   ..

    G           Em        A
 e|------------------------------------------------------------|
 B|------------------------------------------------------------|
 G|------------------------------------------------------------|
 D|-5-55-5-55-5-2-22-2-22-7-77-7-77-7-7-7-77-7-77-7------------|
 A|-5-55-3-55-5-2-22-2-22-7-77-7-77-7-7-7-77-7-77-7------------|
 E|-3-33-3-33-3-0-00-0-00-5-55-5-55-5-5-5-55-5-55-5------------|
PM    ..   ..     ..   ..   ..   ..   .   ..   ..

   G            D           F#           B
 e|------------------------------------------------------------|
 B|------------------------------------------------------------|
 G|-------------7-77-7-77-7--------------4-44-4-44-4-----------|
 D|-5-55-5-55-5-7-77-7-77-7-4-44-4-44-4--4-44-4-44-4-----------|
 A|-5-55-3-55-5-5-55-5-55-5-4-44-4-44-4--2-22-2-22-2-----------|
 E|-3-33-3-33-3-------------2-22-2-22-2------------------------|
PM    ..  ..      ..   ..     ..   ..      ..   ..

    G           D           A
 e|------------------------------------------------------------|
 B|------------------------------------------------------------|
 G|-------------7-77-7-7-77------------------------------------|
 D|-5-55-5-55-5-7-77-7-7-77-7-77-7-77-7-7-7-77-7-77-7----------|
 A|-5-55-3-55-5-5-55-5-5-55-7-77-7-77-7-7-7-77-7-77-7----------|
 E|-3-33-3-33-3-------------5-55-5-55-5-5-5-55-5-55-5----------|
PM    ..   ..     ..     ..   ..   ..   .   ..   ..

Verse 2 (Lead)
 e|---------------|
 B|--10-12-15-----|
 G|--9--11-14-----|
 D|---------------| (Part of the first part of verse 2)
 A|---------------|
 E|---------------|

 e|-------------------------------------------------------------------|
 B|-------------------------------------------------------------------|
 G|----------------------------------------111111-999-----------------|
 D|--999-121212-141414-999-121212-141414--------------121212-99999999-|
 A|-------------------------------------------------------------------|
 E|-------------------------------------------------------------------|

 e|------------------------------------------------------------------|
 B|------------------------------------------------------------------|
 G|------------------------------------------------------------------|
 D|-999-121212-141414-999-121212-141414-7777777-99999999-------------|
 A|------------------------------------------------------------------|
 E|------------------------------------------------------------------|
Part of the 2nd part of verse 2^ it's hard to hear but yeah.

----------------------------------------------------------------------------

Pre Chorus 2
    G     Gm
 e|-3-----3------|
 B|-3-----3------|
 G|-4-----3------|
 D|-5-----5------|
 A|-5-----5------|
 E|-3-----3------|
Just look into my eyes, they'll never lie to you.

----------------------------------------------------------------------------

Chorus (Rhythm)
     D      G
 e|------------------------|
 B|------------------------|
 G|--7---------------------|
 D|--7------5--------------| x2
 A|--5--x8--5--x8----------|
 E|---------3--------------|
I'm only half way sober...
 
   G     Gm
 e|-3-----3------|
 B|-3-----3------|
 G|-4-----3------|
 D|-5-----5------|
 A|-5-----5------|
 E|-3-----3------|
When words got me down...

Lead fills
 e|---------------------|
 B|--5b-----------------|
 G|---------9/12--------|
 D|---------------------| you'll know when they come in.
 A|---------------------|
 E|---------------------|

----------------------------------------------------------------------------

Bridge x6
    D                    Dsus4
 e|---2----2----2----2----3----3----3----3------------|
 B|--3-3--3-3--3-3--3-3--3-3--3-3--3-3--3-3-----------|
 G|-2----2----2----2----2----2----2----2--------------|
 D|---------------------------------------------------|
 A|---------------------------------------------------|
 E|---------------------------------------------------|

----------------------------------------------------------------------------

Pre Chorus
    G     Gm
 e|-3-----3------|
 B|-3-----3------|
 G|-4-----3------|
 D|-5-----5------|
 A|-5-----5------|
 E|-3-----3------|
Just look into my eyes, they'll never lie.

----------------------------------------------------------------------------


Final Chorus (Rhythm)
     D      G
 e|------------------------|
 B|------------------------|
 G|--7---------------------|
 D|--7------5--------------| x4
 A|--5--x8--5--x8----------|
 E|---------3--------------|
I'm only half way sober...
 
   G     Gm
 e|-3-----3------|
 B|-3-----3------|
 G|-4-----3------|
 D|-5-----5------| x2
 A|-5-----5------|
 E|-3-----3------|
When words got me down...


Lead fills
 e|---------------------|
 B|--5b-----------------|
 G|---------9/12--------|
 D|---------------------| 
 A|---------------------|
 E|---------------------|

----------------------------------------------------------------------------
     D
 e|------|
 B|------|
 G|--7---|
 D|--7---| 
 A|--5---|
 E|------|
End on it^
Tap to rate this tab
 
# A B C D E F G H I J K L M N O P Q R S T U V W X Y Z