Song name
# A B C D E F G H I J K L M N O P Q R S T U V W X Y Z

Anarbor - Drugstore Diet tab

(/) Slide Up  (\) Slide Down  (h) Hammer On  (p) Pull Off  (b) Bend (r) Release (v) 
Vibrato (x) mute



*this is the main progression that goes around the whole song. this is pretty much all
you need to play the rhythm part, but it does vary alittle bit..*
E|--------------------------------------------------------------------------|
B|--------------------------------------------------------------------------|
G|------------------8-----10--8---------------------------------------------|
D|--11------11--6---8-----10--8---------------------------------------------|
A|--11------11--6---6-----8---6---------------------------------------------|
E|--9-------9---4-----------------------------------------------------------|
----------------------------------------------------------------------------|
Intro

E|-----------------------------------|
B|-----------------------------------|
G|------------------8xxxxx10xx8xxxxx-|
D|--11xxxxxx11xx6xxx8xxxxx10xx8xxxxx-|
A|--11xxxxxx11xx6xxx6xxxxx8xxx6xxxxx-|
E|--9-xxxxxx9-xx4xxx-xxxxx-----------| (x2)

(Don't matter white green or blue...)
E|----------------------------------|
B|----------------------------------|
G|------------------8-----10--8-----|
D|--11------11--6---8-----10--8-----|
A|--11------11--6---6-----8---6-----|
E|--9-------9---4-------------------| (x8)

(Lost for days...)
E|-----------------------------------|
B|-----------------------------------|
G|------------------8xxxxx10xx8xxxxx-|
D|--11xxxxxx11xx6xxx8xxxxx10xx8xxxxx-|
A|--11xxxxxx11xx6xxx6xxxxx8xxx6xxxxx-|
E|--9-xxxxxx9-xx4xxx-xxxxx-----------| (x3)

(Father please wash my sins away)
E|--------------------------------------|
B|--------------------------------------|
G|--6-6-6-6-6-6-6-6-----------8-8-8-8---|
D|--6-6-6-6-6-6-6-6--6-6-6-6--8-8-8-8---|
A|--4-4-4-4-4-4-4-4--6-6-6-6--6-6-6-6---|
E|-------------------4-4-4-4------------|

(I'm twisted...)
E|----------------------------------|
B|----------------------------------|
G|------------------8-----10--8-----|
D|--11------11--6---8-----10--8-----|
A|--11------11--6---6-----8---6-----|
E|--9-------9---4-------------------| (x3)

E|----------------------------------|
B|----------------------------------|
G|-------------------8-8-8-8-8------|
D|------6-------6----8-8-8-8-8------|
A|----6---6---6---6--6-6-6-6-6------|
E|--6-------4-----------------------|

(Lost for days...)
E|-----------------------------------|
B|-----------------------------------|
G|------------------8xxxxx10xx8xxxxx-|
D|--11xxxxxx11xx6xxx8xxxxx10xx8xxxxx-|
A|--11xxxxxx11xx6xxx6xxxxx8xxx6xxxxx-|
E|--9-xxxxxx9-xx4xxx-xxxxx-----------| (x2)

(Father please wash my sins away)
E|--------------------------------------|
B|--------------------------------------|
G|--6-6-6-6-6-6-6-6-----------8-8-8-8---|
D|--6-6-6-6-6-6-6-6--6-6-6-6--8-8-8-8---|
A|--4-4-4-4-4-4-4-4--6-6-6-6--6-6-6-6---|
E|-------------------4-4-4-4------------|

E|----------------------------------------------|
B|----------------------------------------------|
G|------------------------8--8--8--8---10--10---|
D|--11--11--11--11--8--8--8--8--8--8---10--10---|
A|--11--11--11--11--6--6--6--6--6--6---8---8----|
E|--9---9---9---9---4--4------------------------| (x5)



(Lost for days...)
E|----------------------------------|
B|----------------------------------|
G|------------------8-----10--8-----|
D|--11------11--6---8-----10--8-----|
A|--11------11--6---6-----8---6-----|
E|--9-------9---4-------------------|(x2)

(Just found that shes...)
E|-----------------------------------|
B|-----------------------------------|
G|------------------8xxxxx10xx8xxxxx-|
D|--11xxxxxx11xx6xxx8xxxxx10xx8xxxxx-|
A|--11xxxxxx11xx6xxx6xxxxx8xxx6xxxxx-|
E|--9-xxxxxx9-xx4xxx-xxxxx-----------|

(Father please wash my sins away)
E|--------------------------------------|
B|--------------------------------------|
G|--6-6-6-6-6-6-6-6-----------8-8-8-8---|
D|--6-6-6-6-6-6-6-6--6-6-6-6--8-8-8-8---|
A|--4-4-4-4-4-4-4-4--6-6-6-6--6-6-6-6---|
E|-------------------4-4-4-4------------|

(Na na na...)
E|-----------------------------------|
B|-----------------------------------|
G|------------------8xxxxx10xx8xxxxx-|
D|--11xxxxxx11xx6xxx8xxxxx10xx8xxxxx-|
A|--11xxxxxx11xx6xxx6xxxxx8xxx6xxxxx-|
E|--9-xxxxxx9-xx4xxx-xxxxx-----------| (x3)

(Father please wash my sins away...)
E|-----------------------------------------|
B|-----------------------------------------|
G|--6-6-6-6-6-6-6-6-----------8-8-8-8------|
D|--6-6-6-6-6-6-6-6--6-6-6-6--8-8-8-8---6--|
A|--4-4-4-4-4-4-4-4--6-6-6-6--6-6-6-6---6--|
E|-------------------4-4-4-4------------4--| (Sustain last note)


*How many times you have to repeat the measures may be wrong, this tab was transcribed
late at night. lol*
Tap to rate this tab
 
# A B C D E F G H I J K L M N O P Q R S T U V W X Y Z