Song name
# A B C D E F G H I J K L M N O P Q R S T U V W X Y Z

Anarbor - Gypsy Woman tab

Artist: Anarbor
Song: Gypsy Woman
Album: The Words You Dont Swallow
Tabbed by: gustavoaraujo999@hotmail.com

[Intro]
E|----|------|-----|--------|
B|----|------|-----|--------|
G|----|------|-----|--------|
D|3-3-|------|-3-3-|--------|
A|3-3-|------|-3-3-|-----2--|
E|1-1-|------|-1-1-|-1-4--4-|

 
[Verse 1]
E|----|------------------|-----|--------|\
B|----|------------------|-----|--------| \
G|----|-----drums--------|-----|--------|  \
D|3-3-|-----only---------|-3-3-|--------|   \
A|3-3-|------------------|-3-3-|-----2--|    \
E|1-1-|------------------|-1-1-|-1-4--4-|     \
                                               [x2]
E|-----|(notes are right)|-----|--------|     /
B|-----|(not sure about )|-----|--------|    /
G|-----|(  the rhythm   )|-----|--------|   / 
D|-3-3-|-----------------|-3-3-|--------|  /
A|-3-3-|-66-8-66-8-66-8--|-3-3-|-----2--| /
E|-1-1-|-----------------|-1-1-|-1-4--4-|/


[Pre-Chorus]
E|--------------|
B|--------------|
G|-------8~-----|
D|--8~---8~-----|
A|--8~---6~-----|
E|--6~----------|


[Chorus]
E|----------------------|----------------------|
B|----------------------|----------------------|
G|------5555-6666-------|------5555-6666-------|
D|-3333-5555-6666-6665--|-3333-5555-6666-6~--5-|
A|-3333-3333-4444-6665--|-3333-3333-4444-6~--5-|
E|-1111-----------4443--|-1111-----------4~--3-|


[Post Chorus]
E|-------------------|
B|-------------------|
G|-------------------|
D|-------------------|
A|----2-------2------|
E|-1-4-4---1-4-4-----|


[Verse 2]
E|----|------------------|-----|--------|\
B|----|------------------|-----|--------| \
G|----|-----drums--------|-----|--------|  \
D|3-3-|-----only---------|-3-3-|--------|   \
A|3-3-|------------------|-3-3-|-----2--|    \
E|1-1-|------------------|-1-1-|-1-4--4-|     \
                                               [x2]
E|-----|-----------------|-----|--------|     /
B|-----|-----------------|-----|--------|    /
G|-----|-----------------|-----|--------|   / 
D|-3-3-|66655566655566655|-3-3-|--------|  /
A|-3-3-|-----------------|-3-3-|-----2--| /
E|-1-1-|-----------------|-1-1-|-1-4--4-|/


[Pre chorus]

[Chorus]

[Post Chorus 2]
E|-----------------------------|
B|-----------------------------|
G|-----------------------------|
D|-----------------------------|
A|----2-------2------2------2--|
E|-1-4-4---1-4-4--1-4-4--1-4-4-|


[Bridge]
e|------|----------------------------------------|
B|------|-9-9-9-8-8-8----------------------------|
G|------|-------------10-10-10-8-8-8--------[x2]-|
D|-3-3--|----------------------------10-10~------|
A|-3-3--|----------------------------------------|
E|-1-1--|----------------------------------------|

E|-------------------------------------------------|
B|-(this part only sounds good when the guitar is)-|
G|-(tuned half step down because of the D#)--------|
D|-------------------------------------------------|
A|--------66---6-----------------------------------|
E|--11---1------44---4-66-4-6-4-6------------------|

e|------------------------------------------------------------------|
B|------------------------------------------------------------------|
G|----8-10----8-10-12----10-12-13----141414-13-14-13-14-------------|
D|-10---------------------------------------------------[x2]--------|
A|------------------------------------------------------------------|
E|------------------------------------------------------------------|

[Solo]
Lead:
e|-----------------|-161616-131313-----------------------------------|
B|-11h13-13-13-----|--------------161616-131313----------------------|
G|-----------------|----------------------------15^17-13-15^17-13----|
D|------------[x3]-|----------------------------------------------15-|
A|-----------------|-------------------------------------------------|
E|-----------------|-------------------------------------------------|

E|---------------------------------------------------|
B|---------------------------------------------------|
G|-13-15^17-13-----13-15^17-13-----13-15^17-13----13-|
D|-------------15--------------15--------------15----|
A|---------------------------------------------------|
E|---------------------------------------------------|

e|------------------------------------------------------------------|
B|-------------------------------------------131313-----------------|
G|-----------------------------131313-151515------------------------|
D|---------------131313-151515--------------------------------------|
A|-151515-161616----------------------------------------------------|
E|------------------------------------------------------------------|

e|----|--------------|----|--------------|----------16181818-----|
B|----|--------------|----|-13141414-----|-16181818----------18~-|
G|-15-|-15-13-15-----|-15-|--------------|-----------------------|
D|----|---------[x3]-|----|---------[x2]-|-----------------------|
A|----|--------------|----|--------------|-----------------------|
E|----|--------------|----|--------------|-----------------------|

Rhythm:
E|---------------------|
B|---------------------|
G|------8888-----------|
D|-3333-8888-6666-8888-| [x2]
A|-3333-6666-6666-8888-|
E|-1111------4444-6666-|

E|--------------------------|
B|--------------------------|
G|--------------------------|
D|--------------------------| [x2]
A|--------------------------|
E|-6--6-4h6--6-4h6--6-4h6---|


[Pre-Chorus]
E|--------------|
B|--------------|
G|-------8~-----|
D|--8~---8~-----|
A|--8~---6~-----|
E|--6~----------|


[Final Chorus]
E|----------------------|---------------------|
B|----------------------|---------------------|
G|-----------6-6--------|------5555-6666------|
D|-3-3-------6-6--------|-3333-5555-6666-6665-|
A|-3-3-------4-4--------|-3333-3333-4444-6665-|
E|-1-1------------------|-1111-----------4443-|

E|----------------------|----------------------|
B|----------------------|----------------------|
G|------5555-6666-------|------5555-6666-------|
D|-3333-5555-6666-6665--|-3333-5555-6666-6~----|
A|-3333-3333-4444-6665--|-3333-3333-4444-6~----|
E|-1111-----------4443--|-1111-----------4~----|
 

[Outro]
E|----------------------------------------------|
B|----------------------------------------------|
G|----------------------------------------------|
D|--------------------------------3-3-------3-3-|
A|----2-------2-------2-------2---3-3-------3-3-|
E|-1-4-4---1-4-4---1-4-4---1-4-4--1-1-------1-1-|
Tap to rate this tab
 
# A B C D E F G H I J K L M N O P Q R S T U V W X Y Z