Song name
# A B C D E F G H I J K L M N O P Q R S T U V W X Y Z

Anarbor - Anatomy Acoustic tab

-------------------------------------------------------------------------------
                             ANATOMY - Anarbor
-------------------------------------------------------------------------------
Tabbed by: Kamdude

*Tuning:Drop D*


These are the chords in the 1st verse: (No strum pattern, just chords)

e|-0---------0----------0----------0----------------------------|
B|-5---------5----------5----------0----------------------------|
G|-6---------6----------6----------4-----x2---------------------|
D|-7---------6----------4----------2----------------------------|
A|-0---------0----------0----------0----------------------------|
D|--------------------------------------------------------------|

Chorus: (same chords)

e|-0---------0----------0----------0----------------------------|
B|-5---------5----------5----------0----------------------------|
G|-6---------6----------6----------4-----x2---------------------|
D|-7---------6----------4----------2----------------------------|
A|-0---------0----------0----------0----------------------------|
D|--------------------------------------------------------------|

Guitar after chorus (No strum pattern)
e|-0------0------0-----0--------------------------------------|
B|-0------0------0-----0--------------------------------------|
G|-2----2/4----4/6---6/9-------9-------9-------4------6-------|
D|-0------0------0-----0-------9-------9-------2------4-------|
A|-0------0------0-----0-------7-------0-------2------4-------|
D|-----------------------------7-------0-------2------4-------|

   ..ohh nooo             
e|--------------------------0-------------------------|
B|--------------------------5-------------------------|
G|---9----6----9----9-------6-------------------------|
D|---0----0----0----0-------7-------------------------|
A|---0----0----0----0-------0-------------------------|
D|----------------------------------------------------|


(Lets let our bodies..)           (I cant find..)
e|-0----0----0-----0-----0-----0---------------0------|
B|-0----0----0-----0-----0-----0---------------0------|
G|-4----2----4-----2-----4-----2---------------2------|
D|-2----0----2-----0-----2-----0-----2----4----0------|
A|-0----0----0-----0-----0-----0-----2----4----0------|
D|-----------------------------------2----4-----------|

(The rest just repeats what is above. Enjoy. Please rate.)

Tap to rate this tab
# A B C D E F G H I J K L M N O P Q R S T U V W X Y Z