Song name
# A B C D E F G H I J K L M N O P Q R S T U V W X Y Z

Anarbor - Every High Has A Come Down tab

Anarbor - Every High Has a Come Down

This is my very first tab and i got this by ear.
I think its correct. enjoy and leave feedback!
Great Song by Anarbor!

Tuning - Halfstep down

eb|--------------------------------------------------------------------------------|
Bb|--------------------------------------------------------------------------------|
Gb|--------------------------------------------------------------------------------|
Db|----------------------------------------------------(x2)------------------------|
Ab|---------7--5--3--2-------------------------------------------------------------|
Eb|------5--------------3--0--1--3--4----------------------------------------------|

     (Palm Mute here).......
eb|--------------------------------------------------------------------------------|
Bb|--------------------------------------------------------------------------------|
Gb|--------------------------------------------------------------------------------|
Db|----------------------------------------------------(x2)------------------------|
Ab|---------7--5--3--2-------------------------------------------------------------|
Eb|------5--------------3--0--1--3--4----------------------------------------------|


eb|-------------------------------------------------------------------------------|
Bb|-------------------------------------------------------------------------------|
Gb|-------------------------------------------------------------------------------|
Db|-------------------------------------------------------------------------------|
Ab|-------------------------------------------------------------------------------|
Eb|------7-7-7--5-5-5--4-4-4--3-3-3-----------------------------------------------|


eb|----------------------------3----------------------------------------------------|
Bb|----1----------------------------------------------------------------------------|
Gb|---------------------------------------------------------------------------------|
Db|------2------(x5)-----------------(x5)-------------------------------------------|
Ab|--------3-----------------1------------------------------------------------------|
Eb|----------------------------2----------------------------------------------------|
Tap to rate this tab
# A B C D E F G H I J K L M N O P Q R S T U V W X Y Z