Song name
# A B C D E F G H I J K L M N O P Q R S T U V W X Y Z

Anarbor - Useless tab

The other tab for this song had it spot on but was just missing the bridge bit 
before the last chorus so there it is.

Tuning Half Step Down.


VERSE/INTRO

e----------------------------------------------------------------------|
B----------------------------------------------------------------------|
G---11--------7--------6-----------------------------------------------|
D----------------------------------------------------------------------|
A----------------------------------------------------------------------|
E---10--------7--------5-----------------------------------------------|

PRE CHORUS
e----0-------0---------0------0-----------------------------------------|
B----0-------2---------0------2-----------------------------------------|
G----0-------2---------0------2-----------------------------------------|
D----2-------2---------2------2-----------------------------------------|
A----2-------0---------2------0-----------------------------------------|
E----0------------3-2--0------------------------------------------------|

CHORUS

e---------------------------------------------------------------------|
B---------------------------------------------------------------------|
G-----7----2----6------4----------------------------------------------|
D---------------------------------------------------------------------|
A---------------------------------------------------------------------|
E-----7----2----5------3----------------------------------------------|

BRIDGE

e-----2-3-2-0---3-2---3-----------------------------------------------|
B-----3-3-3-3---3-3---3-----------------------------------------------|
G-----2-2-2-2---2-2---0----7------------------------------------------|
D-----0-0-0-0---0-0---0-----------------------------------------------|
A---------------------2-----------------------------------------------|
E---------------------3----6------------------------------------------|


Tabbed by Stan Evans.
Tap to rate this tab
 
# A B C D E F G H I J K L M N O P Q R S T U V W X Y Z