Song name
# A B C D E F G H I J K L M N O P Q R S T U V W X Y Z

Anarchy Club - Kill For You tab


Intro/Chorus
e||----------------------------------|
B||----------------------------------|
G||----------------------------------|
D||9-9-9999-7-7-7777-4-4-4444-555-777|  x2
A||9-9-9999-7-7-7777-4-4-4444-555-777|
D||9-9-9999-7-7-7777-4-4-4444-555-777|

Verse
e||------------------|    |------|
B||------------------|    |------|
G||------------------|    |------|
D||55--55-55--4------| x4 |5--7--|
A||55--55-55--4------|    |5--7--|
D||55--55-55--4------|    |5--7--|

Bridge
e||----------|      |------|
B||----------|      |------|
G||----------|      |------|
D||4----5----|  x8  |5--7--|
A||4----5----|      |5--7--|
D||4----5----|      |5--7--|

End on
e||-------|
B||-------|
G||-------|
D||9------|
A||9------|
D||9------|

Order:
Intro
Verse
Chorus
Verse
Bridge
Chorus

If have any questions or corrections, e-mail them to me at atomic-garden@hotmail.com
Tap to rate this tab
# A B C D E F G H I J K L M N O P Q R S T U V W X Y Z