Song name
# A B C D E F G H I J K L M N O P Q R S T U V W X Y Z

Anarchy Club - Hidden By Blue tab

Song: Hidden By Blue
Band: Anarchy Club
Album: The Way And It's Power

Bass & Drum Intro
Intro/Verse x5
e|-------------------------|-------------------------|
B|-0---0-0-0-0-1---1-1-1-1-|-1---1-1-1-1-------------|
G|-2---2-2-2-2-2---2-2-2-2-|-0---0-0-0-0-2---2-2-2-2-|
D|-2---2-2-2-2-2---2-2-2-2-|-2---2-2-2-2-2---2-2-2-2-|
A|-0---0-0-0-0-0---0-0-0-0-|-3---3-3-3-3-2---2-2-2-2-|
D|-------------------------|-------------2---2-2-2-2-|

Pre-Chorus
e|-------------------------|-------------------------|
B|-0---0-0-0-0-1---1-1-1-1-|-------------------------|
G|-2---2-2-2-2-2---2-2-2-2-|-5-5-5-5-5-5-4-4-4-4-4-4-|
D|-2---2-2-2-2-2---2-2-2-2-|-5-5-5-5-5-5-4-4-4-4-4-4-|
A|-0---0-0-0-0-0---0-0-0-0-|-3-3-3-3-3-3-2-2-2-2-2-2-|
D|-------------------------|-------------------------|

Chorus x4
e|-------------------------|-------------------------|
B|-------------------------|-------------------------|
G|-2---2-2-2-2-2---2-2-2-2-|-5-----5-5-5-4---4-4-4-4-|
D|-2---2-2-2-2-2---2-2-2-2-|-5-----5-5-5-4---4-4-4-4-|
A|-0---0-0-0-0-0---0-0-0-0-|-3-----3-3-3-2---2-2-2-2-|
D|-------------------------|-------------------------|

Verse x3
Pre-Chorus
Chorus x8
Bridge x4
e|-------------------------|-------------------------|
B|-------------------------|-------------------------|
G|-------------------------|-------------------------|
D|-3/5---5-5-5-3/5---5-5-5-|-3-----3-3-3-2---2-2-2-2-|
A|-3/5---5-5-5-3/5---5-5-5-|-3-----3-3-3-2---2-2-2-2-|
D|-3/5---5-5-5-3/5---5-5-5-|-3-----3-3-3-2---2-2-2-2-|

(guitar 1)
e|-------------------------|------------------------|
B|-------------------------|------------------------|
G|-7---7-7-7-7-7---7-7-7-7-|-7---7-7-7-7-7----------|
D|-7---7-7-7-7-7---7-7-7-7-|-7---7-7-7-7-7----------|
A|-5---5-5-5-5-5---5-5-5-5-|-5---5-5-5-5-5----------|
D|-------------------------|------------------------|
(guitar 2)
e|-------------------------|------------------------|
B|-------------------------|------------------------|
G|-------------------------|------------------------|
D|-0---0-0-0-0-0---0-0-0-0-|-0---0-0-0-0-0----------|
A|-0---0-0-0-0-0---0-0-0-0-|-0---0-0-0-0-0----------|
D|-0---0-0-0-0-0---0-0-0-0-|-0---0-0-0-0-0----------|

Verse x5
Pre-Chorus
Chorus x12
Outro
e|-------------------------|-------------------------|
B|-0---0-0-0-0-1---1-1-1-1-|-1---1-1-1-1-------------|
G|-2---2-2-2-2-2---2-2-2-2-|-0---0-0-0-0-2---2-2-2-2-|
D|-2---2-2-2-2-2---2-2-2-2-|-2---2-2-2-2-2---2-2-2-2-|
A|-0---0-0-0-0-0---0-0-0-0-|-3---3-3-3-3-2---2-2-2-2-|
D|-------------------------|-------------2---2-2-2-2-|

e|-------------------------|-------------0~----------|
B|-0---0-0-0-0-1---1-1-1-1-|-1---1-1-1-1-0~----------|
G|-2---2-2-2-2-2---2-2-2-2-|-0---0-0-0-0-0~----------|
D|-2---2-2-2-2-2---2-2-2-2-|-2---2-2-2-2-2~----------|
A|-0---0-0-0-0-0---0-0-0-0-|-3---3-3-3-3-2~----------|
D|-------------------------|-------------2~----------|
Tap to rate this tab
# A B C D E F G H I J K L M N O P Q R S T U V W X Y Z