Song name
# A B C D E F G H I J K L M N O P Q R S T U V W X Y Z

Anarchy Club - King Of Everything tab

E----------------------------------------------|        Intro
B----------------------------------------------|
G----------------------------------------------|
D--2-2--2-2--2-2--3-3--3-3--3-3----------------|
A--2-2--2-2--2-2--3-3--3-3--3-3----------------|       x5(3rd and 4th are palm-muted)
D--2-2--2-2--2-2--3-3--3-3--3-3----------------|

-------------------------------------|
-------------------------------------|
-------------------------------------|
--2-2--2-2--2-2--10-10--5-5--9-9-----|        Bridge(pre chorus)
--2-2--2-2--2-2--10-10--5-5--9-9-----|
--2-2--2-2--2-2--10-10--5-5--9-9-----|


Chorus

---------------------------|
---------------------------|
---------------------------|
-2~------12~----7~---------|         (x5)
-2~------12~----7~---------|
-2~------12~----7~---------|


Back to Intro(x5) then Verse back to chorus (x5)

Bridge

E--------------------------------------|
B--------------------------------------|
G--------------------------------------|
D-5-10-5-10-5-10-12~----7~-------------|
A-5-10-5-10-5-10-12~----7~-------------|
D-5-10-5-10-5-10-12~----7~-------------|


Back to Intro(x5)


At the end play the chorus when expected and then play it an additional 5 times
Tap to rate this tab
# A B C D E F G H I J K L M N O P Q R S T U V W X Y Z