Song name
# A B C D E F G H I J K L M N O P Q R S T U V W X Y Z

Anarchy Icon - Like This tab

Verse:

e1-----7-------3------------1-----7---------5--------------
B-1-----7------7-------------1-----7---------5-------------
G--1-----7-----5--------------1-----7---------5------------
D---1-----7----1---------------1-----7---------5-----------
A----1-----7--------------------1-----7---------5----------
E-----1-----7--------------------1-----7---------5---------

Chorus:

e----------------------------------------------------------
B----------------------------------------------------------
G----------------------------------------------------------
D----------------------------------------------------------
A--2-0-2-----------x3--2-------2---------------------------
E--------3-2-3-2-3-------3-2-3-----------------------------

The "why like this...." part

e2-----5-------3------------1-----7---------5--------------
B-2-----5-------7-------------1-----7---------5-------------
G--2-----5-------6-------------1-----7---------5------------
D---2-----5--------9-----------1-----7---------5-----------
A----2-----5--------------------1-----7---------5----------
E-----2-----5--------------------1-----7---------5---------

repeat until end
Tap to rate this tab
# A B C D E F G H I J K L M N O P Q R S T U V W X Y Z