Song name
# A B C D E F G H I J K L M N O P Q R S T U V W X Y Z

Anarky - Number One tab

This is it for now. Im starting this band and this is all I have time to
Tab out right now.  Besides i don't have a guitar in front of me right
now.

Intro
fast

E----------------------------|
B----------------------------|
G---------------------7-7-7--|
D---------------------x-x-x--|PLAY
A---------------------5-5-5--| 4x
E---0-0-0-0-0-0-------0-0-0--|
p.m. all       ^pause^


E------------------------------------------------------|
B------------------------------------------------------|
G-------------------------------------------------h3p--|PLAY
D---------------------h3p-----------------h3p---h3p----| 2x
A------------------h2p-----7-6-5-4-3---------h2p-------|
E-0-0-0-0-0-0-0-0-0--------0-0-0-0-0-0-0-0-------------|
p.m. all open notes


well thats it for now, more to come as soon as i figure it out!
Tap to rate this tab
# A B C D E F G H I J K L M N O P Q R S T U V W X Y Z