Song name
# A B C D E F G H I J K L M N O P Q R S T U V W X Y Z

Anastacia - I Belong To You tab

Song: I belong to You
Band: Eros Ramazzoti ft Anastacia
Tabber: RokI
Tunning: EADGBe
Notes: A beautifull solo that i decided to tab

Legend :
b=bend
b (f) = full bend
b (fr)= full bend & release
p = pullof 
h = hammer on

For rythm yust play along with the song
it should be perfect, i play it along the song.

e|-----------------------------------------------|
B|------19b(f)-19b(fr)---19b(fr)p16h19--16h19p16-|
G|--16-------------------------------------------|
D|-----------------------------------------------|
A|-----------------------------------------------|
E|-----------------------------------------------|

e|-----------------------------------------------|
B|-------------------------------------16--17----|
G|---------14----14----14-16-17--17-18-----------|
D|-16--18-----18----18------------------------- -|
A|-----------------------------------------------|
E|-----------------------------------------------|

e|-------14---14---------------------------------|
B|-16-14---------17-16---------------------------|
G|-----------------------------------------------|
D|-----------------------------------------------|
A|-----------------------------------------------|
E|-----------------------------------------------|





Tap to rate this tab
# A B C D E F G H I J K L M N O P Q R S T U V W X Y Z