Song name
# A B C D E F G H I J K L M N O P Q R S T U V W X Y Z

Anathallo - But Without Love tab

i can't find a single damn anathallo tab online, so i'm posting one, well...most of one haha

Intro Pt.1 (0:00 - 1:28)

sorry anathallo fans, i haven't perfected this part yet, when i do i'll post it


Pre-Verse (1:29-2:04)  (double stroking through most)

E:-x-x-x-x-x-x-x-x-x-x-x-x--x-x-x-x-x-x--x-x-x-  [ x-x-x ]
B:-x-x-x-x-x-x-x-x-x-x-x-x--x-x-x-x-x-x--x-x-x-  [ x-x-x ]
G:-x-x-x-x-x-x-x-x-x-x-x-x--x-x-x-x-x-x--x-x-x-  [ x-x-x ]   X2
D:-7-7-7-7-7-7-7-7-7-7-7-7--3-3-3-3-3-3--5-5-5-  [ 5-5-5 ]
A:-7-7-7-7-7-7-7-7-7-7-7-7--3-3-3-3-3-3--5-5-5-  [ 5-5-5 ]
D:-7-7-7-7-7-7-7-7-7-7-7-7--3-3-3-3-3-3--5-5-5-  [ 5-5-5 ]

                                             [First Time Only]


E:-x-x-x-x-x-x-x-x-x-x-x-x--x-x-x-x-x-x-x-x-x-x-x-x---|
B:-x-x-x-x-x-x-x-x-x-x-x-x--x-x-x-x-x-x-x-x-x-x-x-x---|
G:-x-x-x-x-x-x-x-x-x-x-x-x--x-x-x-x-x-x-x-x-x-x-x-x---|
D:-5-5-5-5-4-4-5-5-5-5-4-4--5-5-5-7-7-7-9-9-9-101010--|
A:-3-3-3-3-2-2-3-3-3-3-2-2--3-3-3-5-5-5-7-7-7-8-8-8---|
D:-x-x-x-x-x-x-x-x-x-x-x-x--x-x-x-x-x-x-x-x-x-x-x-x---|

E:-x-x-x-x-x-x-x-x-x-x-x-x--x-x-x-x-x-x-x-x-x-x-x-x-x-x-x-|
B:-x-x-x-x-x-x-x-x-x-x-x-x--x-x-x-x-x-x-x-x-x-x-x-x-x-x-x-|
G:-x-x-x-x-x-x-x-x-x-x-x-x--x-x-x-x-x-x-x-x-x-x-x-x-x-x-x-|
D:-5-5-5-5-4-4-5-5-5-5-4-4--2-2-2-5-5-5-3-3-3-3-2-2-0-0-0-|
A:-3-3-3-3-2-2-3-3-3-3-2-2--0-0-0-5-5-5-3-3-3-2-2-2-0-0-0-|
D:-x-x-x-x-x-x-x-x-x-x-x-x--x-x-x-5-5-5-3-3-3-2-2-2-0-0-0-|

E:-x--x--x-|
B:-x--x--x-|
G:-x--x--x-|
D:-3-/5-/7-|    let ring
A:-3-/5-/7-|
D:-3-/5-/7-|

Verse 1 (2:04-2:38)   (no guitar)

Chorus  (2:39-3:14) (double stroking through most)


E:-x-x-x-x-x-x-x---x--------x-x-x-x-x-x--x-x-x-x-x-x-|
B:-x-x-x-x-x-x-x---x--------x-x-x-x-x-x--x-x-x-x-x-x-|
G:-x-x-x-x-x-x-x---x--------x-x-x-x-x-x--x-x-x-x-x-x-|
D:-7-7-7-7-7-7-7---7--------3-3-3-3-3-3--5-5-5-5-5-5-|
A:-7-7-7-7-7-7-7---7--------3-3-3-3-3-3--5-5-5-5-5-5-|
D:-7-7-7-7-7-7-7---7--------3-3-3-3-3-3--5-5-5-5-5-5-|


E:-x-x-x-x-x-x-x---x-x-x----x-x-x-x-x-x--x-x-x-x-x-x-|
B:-x-x-x-x-x-x-x---x-x-x----x-x-x-x-x-x--x-x-x-x-x-x-|
G:-x-x-x-x-x-x-x---x-x-x----x-x-x-x-x-x--x-x-x-x-x-x-|
D:-7-7-7-7-7-7-7---7-7-7----3-3-3-3-3-3--5-5-5-5-5-5-|
A:-7-7-7-7-7-7-7---7-7-7----3-3-3-3-3-3--5-5-5-5-5-5-|
D:-7-7-7-7-7-7-7---7-7-7----3-3-3-3-3-3--5-5-5-5-5-5-|


E:-x-x-x-x-x-x-x------------x-x-x-x-x-x--x-x-x-x-x-x-|
B:-x-x-x-x-x-x-x------------x-x-x-x-x-x--x-x-x-x-x-x-|
G:-x-x-x-x-x-x-x------------x-x-x-x-x-x--x-x-x-x-x-x-|
D:-7-7-7-7-7-7-7------------3-3-3-3-3-3--5-5-5-5-5-5-|
A:-7-7-7-7-7-7-7------------3-3-3-3-3-3--5-5-5-5-5-5-|
D:-7-7-7-7-7-7-7------------3-3-3-3-3-3--5-5-5-5-5-5-|

E:-x-x-x-x-x-x-x-x-x-x-x-x--x-x-x-x-x-x--x-x-x-x-x-x-|
B:-x-x-x-x-x-x-x-x-x-x-x-x--x-x-x-x-x-x--x-x-x-x-x-x-|
G:-x-x-x-x-x-x-x-x-x-x-x-x--x-x-x-x-x-x--x-x-x-x-x-x-|
D:-7-7-7-7-7-7-7-7-7-7-7-7--3-3-3-3-3-3--5-5-5-5-5-5-|
A:-7-7-7-7-7-7-7-7-7-7-7-7--3-3-3-3-3-3--5-5-5-5-5-5-|
D:-7-7-7-7-7-7-7-7-7-7-7-7--3-3-3-3-3-3--5-5-5-5-5-5-|

E:-x~~~~~~~~~x~~~~~~~~~x~~~~~~~~~x-x--x-x--x-x-x-x-x-|
B:-x~~~~~~~~~x~~~~~~~~~x~~~~~~~~~x-x--x-x--x-x-x-x-x-|
G:-x~~~~~~~~~x~~~~~~~~~x~~~~~~~~~x-x--x-x--x-x-x-x-x-|
D:-3~~~~~~~~~5~~~~~~~~~3~~~~~~~~~5-5--5-5--5-5-5-5-5-|
A:-3~~~~~~~~~5~~~~~~~~~3~~~~~~~~~5-5--5-5--5-5-5-5-5-|
D:-3~~~~~~~~~5~~~~~~~~~3~~~~~~~~~5-5--5-5--5-5-5-5-5-|


Pre-Verse 2 (3:15-3:37)  (double stroking through most)

E:-x-x-x-x-x-x-x-x-x-x-x-x--x-x-x-x-x-x--x-x-x-  [ x-x-x ]
B:-x-x-x-x-x-x-x-x-x-x-x-x--x-x-x-x-x-x--x-x-x-  [ x-x-x ]
G:-x-x-x-x-x-x-x-x-x-x-x-x--x-x-x-x-x-x--x-x-x-  [ x-x-x ]   X2
D:-7-7-7-7-7-7-7-7-7-7-7-7--3-3-3-3-3-3--5-5-5-  [ 5-5-5 ]
A:-7-7-7-7-7-7-7-7-7-7-7-7--3-3-3-3-3-3--5-5-5-  [ 5-5-5 ]
D:-7-7-7-7-7-7-7-7-7-7-7-7--3-3-3-3-3-3--5-5-5-  [ 5-5-5 ]

                                             [First Time Only]


E:-x-x-x-x-x-x-x-x-x-x-x-x--x-x-x-x-x-x-x-x-x-x-x-x---|
B:-x-x-x-x-x-x-x-x-x-x-x-x--x-x-x-x-x-x-x-x-x-x-x-x---|
G:-x-x-x-x-x-x-x-x-x-x-x-x--x-x-x-x-x-x-x-x-x-x-x-x---|
D:-5-5-5-5-4-4-5-5-5-5-4-4--5-5-5-7-7-7-9-9-9-101010--|
A:-3-3-3-3-2-2-3-3-3-3-2-2--3-3-3-5-5-5-7-7-7-8-8-8---|
D:-x-x-x-x-x-x-x-x-x-x-x-x--x-x-x-x-x-x-x-x-x-x-x-x---|

E:-x-x-x-x-x-x-x-x-x-x-x-x--x-x-x-x-x-x-x-x-x-x-x-x-x-x-x-|
B:-x-x-x-x-x-x-x-x-x-x-x-x--x-x-x-x-x-x-x-x-x-x-x-x-x-x-x-|
G:-x-x-x-x-x-x-x-x-x-x-x-x--x-x-x-x-x-x-x-x-x-x-x-x-x-x-x-|
D:-5-5-5-5-4-4-5-5-5-5-4-4--2-2-2-5-5-5-3-3-3-3-2-2-0-0-0-|
A:-3-3-3-3-2-2-3-3-3-3-2-2--0-0-0-5-5-5-3-3-3-2-2-2-0-0-0-|
D:-x-x-x-x-x-x-x-x-x-x-x-x--x-x-x-5-5-5-3-3-3-2-2-2-0-0-0-|


Verse 2 (3:38-4:02) (trust me it's the bass with the moving part)

played stacato

E:-x-x-x-x-x-x-x-x-x-x-x-x--x-x-x-x-x-x--x-x-x-x-x-x----|
B:-x-x-x-x-x-x-x-x-x-x-x-x--x-x-x-x-x-x--x-x-x-x-x-x----|
G:-x-x-x-x-x-x-x-x-x-x-x-x--x-x-x-x-x-x--x-x-x-x-x-x----|
D:-7-7-7-7-7-7-7-7-7-7-7-7--3-3-3-3-3-3--5-5-5-5-5-5----|   X3
A:-7-7-7-7-7-7-7-7-7-7-7-7--3-3-3-3-3-3--5-5-5-5-5-5----|
D:-7-7-7-7-7-7-7-7-7-7-7-7--3-3-3-3-3-3--5-5-5-5-5-5----|

E:-x-x-x-x-x-x-x-x-x-x-x-x--x-x-x-x-x-x--x~~~~~~~~~~
B:-x-x-x-x-x-x-x-x-x-x-x-x--x-x-x-x-x-x--x~~~~~~~~~~
G:-x-x-x-x-x-x-x-x-x-x-x-x--x-x-x-x-x-x--x~~~~~~~~~~
D:-7-7-7-7-7-7-7-7-7-7-7-7--3-3-3-3-3-3--5~~~~~~~~~~   let ring
A:-7-7-7-7-7-7-7-7-7-7-7-7--3-3-3-3-3-3--5~~~~~~~~~~
D:-7-7-7-7-7-7-7-7-7-7-7-7--3-3-3-3-3-3--5~~~~~~~~~~

Chorus 2 (4:02-4:38) (double stroking through most)


E:-x-x-x-x-x-x-x---x--------x-x-x-x-x-x--x-x-x-x-x-x-|
B:-x-x-x-x-x-x-x---x--------x-x-x-x-x-x--x-x-x-x-x-x-|
G:-x-x-x-x-x-x-x---x--------x-x-x-x-x-x--x-x-x-x-x-x-|
D:-7-7-7-7-7-7-7---7--------3-3-3-3-3-3--5-5-5-5-5-5-|
A:-7-7-7-7-7-7-7---7--------3-3-3-3-3-3--5-5-5-5-5-5-|
D:-7-7-7-7-7-7-7---7--------3-3-3-3-3-3--5-5-5-5-5-5-|


E:-x-x-x-x-x-x-x---x-x-x----x-x-x-x-x-x--x-x-x-x-x-x-|
B:-x-x-x-x-x-x-x---x-x-x----x-x-x-x-x-x--x-x-x-x-x-x-|
G:-x-x-x-x-x-x-x---x-x-x----x-x-x-x-x-x--x-x-x-x-x-x-|
D:-7-7-7-7-7-7-7---7-7-7----3-3-3-3-3-3--5-5-5-5-5-5-|
A:-7-7-7-7-7-7-7---7-7-7----3-3-3-3-3-3--5-5-5-5-5-5-|
D:-7-7-7-7-7-7-7---7-7-7----3-3-3-3-3-3--5-5-5-5-5-5-|


E:-x-x-x-x-x-x-x------------x-x-x-x-x-x--x-x-x-x-x-x-|
B:-x-x-x-x-x-x-x------------x-x-x-x-x-x--x-x-x-x-x-x-|
G:-x-x-x-x-x-x-x------------x-x-x-x-x-x--x-x-x-x-x-x-|
D:-7-7-7-7-7-7-7------------3-3-3-3-3-3--5-5-5-5-5-5-|
A:-7-7-7-7-7-7-7------------3-3-3-3-3-3--5-5-5-5-5-5-|
D:-7-7-7-7-7-7-7------------3-3-3-3-3-3--5-5-5-5-5-5-|

E:-x-x-x-x-x-x-x-x-x-x-x-x--x-x-x-x-x-x--x-x-x-x-x-x-|
B:-x-x-x-x-x-x-x-x-x-x-x-x--x-x-x-x-x-x--x-x-x-x-x-x-|
G:-x-x-x-x-x-x-x-x-x-x-x-x--x-x-x-x-x-x--x-x-x-x-x-x-|
D:-7-7-7-7-7-7-7-7-7-7-7-7--3-3-3-3-3-3--5-5-5-5-5-5-|
A:-7-7-7-7-7-7-7-7-7-7-7-7--3-3-3-3-3-3--5-5-5-5-5-5-|
D:-7-7-7-7-7-7-7-7-7-7-7-7--3-3-3-3-3-3--5-5-5-5-5-5-|

E:-x~~~~~~~~~x~~~~~~~~~x~~~~~~~~~x-x--x-x--x-x-x-x-x-|
B:-x~~~~~~~~~x~~~~~~~~~x~~~~~~~~~x-x--x-x--x-x-x-x-x-|
G:-x~~~~~~~~~x~~~~~~~~~x~~~~~~~~~x-x--x-x--x-x-x-x-x-|
D:-3~~~~~~~~~5~~~~~~~~~3~~~~~~~~~5-5--5-5--5-5-5-5-5-|
A:-3~~~~~~~~~5~~~~~~~~~3~~~~~~~~~5-5--5-5--5-5-5-5-5-|
D:-3~~~~~~~~~5~~~~~~~~~3~~~~~~~~~5-5--5-5--5-5-5-5-5-|


if you are reading this tab you apparently listen to anathallo, if so then it would be 
appreciated by myself and the rest of the fans if you could tab out a song on bass or guitar

tyty

ywyw

<3
Sheep


p.s. the official band website is http://www.anathallo.com
Tap to rate this tab
 
# A B C D E F G H I J K L M N O P Q R S T U V W X Y Z