Guitaretab - guitar tabs
Song name
# A B C D E F G H I J K L M N O P Q R S T U V W X Y Z

Anathallo - Cuckoo Spitting Blood tab

-------------------------------------------------------------------------------
		 CUCKOO SPITTING BLOOD - Anathallo
-------------------------------------------------------------------------------
Tabbed by: billy d
Email:

Tuning: standard

Capo: 9

Fingering relative to capo. (ie. "3" is really the twelfth fret, 3 from capo.)

Most of the notes are played at the same speed, but you'll have to listen to get the
of it, because there are a few exceptions. You'll probably want to finger-pick this one, too.


verse 1
e|---------------------------------------------------------------------|
B|----0-------0-------0-------0-------0-----0---------0-----0----------|
G|--2---2-2-2---2-2-2---2-2-2---2-2-2---1-2---2-1-1-2---1-2---2-1-1----|
D|---3-3-3---3-3-3---3-3-3---3-3-3---2-2-2-2-2-2-2---2-2-2-2-2-2-2-----|(x4)
A|-5-------5-------3-------3-------2---------------2-------------------|
E|---------------------------------------------------------------------|

chorus 1
"i don't..."                                                "so I"
e|----------------------------------------------------------------|
B|------3---------------3---------------1---0---------------------|
G|--0-------0---0---0-------0---0---0-----------2---0---0---0---0-|
D|----0---0---0-------0---0-----------0---0---0---0---0--0h2--0---|
A|--------------------------------0-------------------------------|
E|3---------------3-----------3-----------------------------------|

"won't be a..."
e|---------------|
B|------1p0------|
G|--0-------2p0--|(x2)
D|----2---------2|
A|3--------------|
E|---------------|

"son..."
e|-------------------------------|
B|------3---------------3--------|
G|--0-------0---0---0-------0---0|
D|----0---0---0-------0---0---0--|
A|-------------------------------|
E|3---------------3--------------|
"morning when words rise up..."
e|----------------------------------------------------------------|
B|------3-------1-------0---------------1---0---------------------|
G|--0-------0-------0-------0---0---0-----------2---0---0---0---0-|
D|----0---0---0---0---0---0-----------0---0---0---0---0--0h2--0---|
A|--------------------------------0-------------------------------|
E|3---------------------------3-----------------------------------|
[ Tab from: http://www.guitaretab.com/a/anathallo/98243.html ]
"demon in me wants to rise up and walk"
e|---------------|
B|------1p0------|
G|--0-------2p0--|(x2)
D|----2---------2|
A|3--------------|
E|---------------|
"away."
e|------------------|
B|------3---------3-|
G|--0-------0---0-0-|
D|----0---0---0---0-|
A|----------------0-|
E|3---------------3-|

"walk away..."
e|---------------------------------------------------------------------|
B|----0-------0-------0-------0-------0-----0---------0-----0----------|
G|--2---2-2-2---2-2-2---2-2-2---2-2-2---1-2---2-1-1-2---1-2---2-1-1----|(x2)
D|---3-3-3---3-3-3---3-3-3---3-3-3---2-2-2-2-2-2-2---2-2-2-2-2-2-2-----|
A|-5-------5-------3-------3-------2---------------2-------------------|
E|---------------------------------------------------------------------|

verse 2:
"when i am alone..."
e|---------------------------------------------------------------------|
B|----0-------0-------0-------0-------0-----0---------0-----0----------|
G|--2---2-2-2---2-2-2---2-2-2---2-2-2---1-2---2-1-1-2---1-2---2-1-1----|
D|---3-3-3---3-3-3---3-3-3---3-3-3---2-2-2-2-2-2-2---2-2-2-2-2-2-2-----|
A|-5-------5-------3-------3-------2---------------2-------------------|
E|---------------------------------------------------------------------|

"i see the knee..."
e|--------------------------------|
B|---0---0---0---0---0---0---0---0|
G|--2---2---2---0---0---0---0---0-|
D|-3---0---0---0---0---0---0---0--|
A|5---3---0-------3---2---0-------|
E|------------3---------------3---|
(it's hard to hear what is played at this part, because of the harmony, but this sounds
good)

"hid myself..."
e|---------------------------------|
B|---0-----0---------0-----0-------|
G|-2---1-2---2-1-1-2---1-2---2-1-1-|
D|--2-2-2-2-2-2-2---2-2-2-2-2-2-2--|
A|2---------------2----------------|
E|---------------------------------|

second chorus is played exactly like the first one, but with different words. listen for
timing and tempo. the awkward chords and finger-picking are intimidating at first, but
really not as hard or as fast as it seems. this song is really hard to play and sing at 
same time, because the sung melody is so arrhythmic, but when done well, it's a
and haunting song. good luck!

| /  slide up
| \  slide down
| h  hammer-on
| p  pull-off
| ~  vibrato
| +  harmonic
| x  Mute note
===============================================================================
Related for Cuckoo Spitting Blood tab
Advertisement will be closed in 10 seconds