Song name
# A B C D E F G H I J K L M N O P Q R S T U V W X Y Z

Anathema - Moonlight tab

Hi! this is a nice tab , it sound very nice so try it out!

E--7-----7-----7-----5-----5-----5-----3-----3-----3-----0-----0-----0------|
B----0-----0-----0-----0-----0-----0-----0-----0-----0-----0-----0-----0----|
G------0-----0-----0-----0-----0-----0-----0-----0-----0-----0-----0-----0--|
D---------------------------------------------------------------------------|
A---------------------------------------------------------------------------|
E--0-----------------0-----------------0-----------------0------------------|

E--2------2-----2-----2-----0-----2-----3-----3-----3-----0-----0-----0-----|
B----1------1-----1-----0-----0-----0-----0-----0-----0-----0-----0-----0---|
G------2------2-----2-----2-----2-----2-----0-----0-----0-----0-----0-----0-|
D---------------------------------------------------------------------------|
A--0------------------2-----------------------------------------------------|
E---------------------------------------0-----------------0-----------------|

Repeat both then you end the song with:

E--0--
B--0--
G--0--
D-----
A-----
E--0--

That's it! Nice ha ? :)
Tap to rate this tab
# A B C D E F G H I J K L M N O P Q R S T U V W X Y Z