Song name
# A B C D E F G H I J K L M N O P Q R S T U V W X Y Z

Anathema - How Fortunate The Man With None tab

I tabbed out this cover of a song by my favorite artist>>Dead Can Dance :D
here it is:

intro:

e----------------------------------------------------------------------|
b----------------------------------------------------------------------|
g----------------------------------------------------------------------|
d------5-------3---------------5-----3---------------------------------|
a--3-------6------5--6--1--3------6-----5--6--1------------------------|
E----------------------------------------------------------------------|

main riff:

e----------3----------------------------------------------------------|
b----------------4------6-----3----4----------------------------------|
g----5----------------------------------3-----------------------------|
d-------------------3-------------------------------------------------|
a-3----5------6------------5----6----1--------------------------------|
e---------------------------------------------------------------------|

good luck!
Tap to rate this tab
 
# A B C D E F G H I J K L M N O P Q R S T U V W X Y Z