Song name
# A B C D E F G H I J K L M N O P Q R S T U V W X Y Z

Anathema - Looking Inside Outside tab


Looking Inside Outside - Anathema - A fine day to exit (2001)
=============================================================


Chords used in the song:

E |-3-|-2-|-0-|-3-|
B |-5-|-2-|-0-|-3-|
G |-5-|-3-|-0-|-4-|
D |-5-|-4-|-2-|-5-|
A |-3-|-4-|-2-|-5-|
E |---|-2-|-0-|-3-|
    C   F#  Em  G
-----------

Arpegio 1 (Played by acoustic guitar and clean guitar)
E |-------0-----|      |-------0-----|
B |---------4---|      |---------0---|
G |-----6-----6-| x 4  |-----6-----6-| x 4
D |---6---------|      |---6---------|
A |-0-----------|      |-4-----------|
E |-------------|      |-------------|


Arpegio 2 (Played by acoustic guitar and clean guitar)
E |-------0------------0------------0------------0-----|
B |-----0---0--------0---0--------0---0--------0---0---|
G |---6-------6----6-------6----6-------6----6-------6-|
D |----------------------------------------------------|
A |----------------------------------------------------|
E |-2------------4------------5------------0-----------|

(With arpegio 2)

Arpegio 3 (Played by acoustic guitar and clean guitar)
E |-------0------------0------------0------------0-----|
B |---------0------------0------------0------------0---|
G |-----5-----5------5-----5------7-----7------7-----7-|
D |---5------------5------------7------------7---------|
A |-3------------3------------5------------5-----------|
E |----------------------------------------------------|

(With arpegio 1)

(With arpegio 2)


E |-------0-----|
B |---------4---|
G |-----6-----6-| x 4
D |---6---------|
A |-0-----------|
E |-------------|

(With arpegio 2)

Arpegio 3 (Played by acoustic guitar and clean guitar)   C# Arpegio
E |-------0------------0------------0------------0-----||-------0-----|
B |---------0------------0------------0------------0---||---------0---|
G |-----5-----5------5-----5------7-----7------7-----7-||-----6-----6-| x 4
D |---5------------5------------7------------7---------||---6---------|
A |-3------------3------------5------------5-----------||-4-----------|
E |----------------------------------------------------||-------------|

Play Arpegio 3 three times, and the last time play Arpegio 4 instead of
C# arpegio

Arpegio 4 (Played by acoustic guitar and overdriven guitar)
E |-------0------------0------------0--------------0---|
B |-----0---0--------0---0--------0---0--------------0-|
G |---3-------3----3-------3----3-------3--------4-----|
D |--------------------------------------------5-------|
A |------------------------------------------5---------|
E |-2------------2------------2------------3-----------|

(With arpegio 4) 4 times

In the next section there are two guitars with distortion effect playing
multiple strokes for each chord. Listen the song reading the chords, the
section is easier to play if youґve listened it before ;-)

C        F#  E  F#  G  F# E F# E F# G F#

C        F#  E  F#  G  F# E F# C G

F#       E F# G F# E F#    C G

C        F#  E  F#  G  F# E F# E F# G F#


E |-------------------------------------------------|
B |-5-5-5-5-5-5-5-5-7-7-7-7-7-7-7-7-8-8-8-8-8-8-8-8-|
G |-------------------------------------------------|
D |-------------------------------------------------|
A |-------------------------------------------------|
E |-------------------------------------------------|

E |------------------------------|
B |-10-10-10-10-10-10-10-10-11...|
G |------------------------------|
D |------------------------------|
A |------------------------------|
E |------------------------------|


E |-------------------------------------------------|
B |-5-5-5-5-5-5-5-5-7-7-7-7-7-7-7-7-8-8-8-8-8-8-8-8-|
G |-------------------------------------------------|
D |-------------------------------------------------|
A |-------------------------------------------------|
E |-------------------------------------------------|

E |------------------------------|
B |-14-14-14-14-14-14-14-14-14...|
G |------------------------------|
D |------------------------------|
A |------------------------------|
E |------------------------------|



F#      E F# G F# E F#    C G

F#      E F# G F# E F#               Em

The song ends with F# and Em chords
Tap to rate this tab
# A B C D E F G H I J K L M N O P Q R S T U V W X Y Z