Song name
# A B C D E F G H I J K L M N O P Q R S T U V W X Y Z

Anathema - Thin Air tab

Capo on 3rd fret.. its not perfect, but at least somethin

VERSE 1 8x

E--------------------------------------------|
B---------4-0--------------4-0---------------|
G-------6----------------6-------------------|
D-----6----------------6---------------------|
A--------------------------------------------|
E---0----------------0-----------------------|

VERSE 2 8x

E---------------------------------------------|
B-------------0------------------0------------|
G--------6-----------------6------------------|
D------6---6-------------6---6----------------|
A----4-----------------4----------------------|
E---------------------------------------------|

VERSE 3 8x

E----------------------------------------------|
B----0---------0--------0----------0-----------|
G-------3---------3--------3----------3--------|
D----------6------------------6----------------|
A----------------------------------------------|
E----------------------------------------------|

VERSE 4 2x

E---------------------------------------------|
B----4---------4---------4--------4-----------|
G-------6---------6---------6--------6--------|
D----------6------------------6---------------|
A---------------------------------------------|
E---------------------------------------------|

VERSE 5 2x


E---------------------------------------------|
B-----------0-----0-----------0------0--------|
G--------6-----6-----------6------6-----------|
D------6-----------------6--------------------|
A---------------------------------------------|
E---------------------------------------------|

VERSE 1
Love is free

VERSE 2
In time, in peace

VERSE 1
And now is here

VERSE 2
This life, this dream
You know how it feels, but..

VERSE 3
..is it all in your mind?
You know how it feels to be..

VERSE 4
...pushed and pulled through your life - VERSE 5, VERSE 4, VERSE 5 -
and sometimes it ssems like...

VERSE 4
..there is life in your eyes - VERSE 3, VERSE 4, VERSE 3 - And all that I know is I love 
you - VERSE 4, VERSE 5

VERSE 4
Yes, I love you! VERSE 5 - And it feels like were already flying

VERSE 1
But the air is too thin and were dying - VERSE 2. - couds all around take us higher - 
VERSE 1

The world far below is on fire - VERSE 2, I hold out my hand just to touch you - VERSE 1

And all that I know I love you - VERSE 2, a vision a promise of heaven - VERSE 1, a 
reason for being forever - VERSE 2... forever...
Tap to rate this tab
 
# A B C D E F G H I J K L M N O P Q R S T U V W X Y Z