Song name
# A B C D E F G H I J K L M N O P Q R S T U V W X Y Z

Anathema - A Natural Disaster tab

 Part I:
 
e|-------------------------------|
B|-------------------------------|
G|-------------------------------|
D|--2-4-5-4-2--5---2---2---------|
A|-------------5---4---2---------|
E|-------------3---0---0---------|


 Part II:

	       
e|-------------------------------|
B|-------------------------------|
G|-------------------------------|
D|--2-4-5-4-2--5---4---4---------|
A|-------------5---2---2---------|
E|-------------3---0---0---------|
               You just slipped through my fingers


Chorus:
~~~~~~~
    C  Em  Bm
e|--3---0---2--|
B|--3---0---3--|
G|--5---0---4--|
D|--5---2---4--|
A|--3---2---2--|
E|------0------|

the order it's played in:

Part I
Part II
Part I
Chorus
Part I
Chorus
Tap to rate this tab
# A B C D E F G H I J K L M N O P Q R S T U V W X Y Z