Song name
# A B C D E F G H I J K L M N O P Q R S T U V W X Y Z

Anathema - Untouchable Part 1 tab

-------------------------------------------------------------------------------
                             SONG NAME - Band Name
-------------------------------------------------------------------------------
Tabbed by: Manuel Usero
E-mail: manusero_001@hotmail.com
Tuning: Standard (EADGBE)
CAPO over the 1st fret of the guitar.


0:00 - 0:46 (total 6 times):

E|-----------------|-----------------|-----------------|-----------------|-
B|-------3---------|-------3---------|-------3---------|-------3---------|-
G|--(4)------4---4-|---4-------4---4-|--(4)------4---4-|---4-------4---4-|-
D|-----0-------0---|-----0-------0---|-----4-------4---|-----2-------0---|-
A|-2-------2-------|-2-------2-------|-0-------0-------|-0-------0-------|-
E|-----------------|-----------------|-----------------|-----------------|-

E|-----------------|-----------------|-----------------|-----------------|-
B|-------3---------|-------3---------|-------3---------|-------3---------|-
G|--(4)------4---4-|---4-------4---4-|---4-------4---4-|---4-------4---4-|-
D|-----0-------0---|-----0-------0---|-----0-------0---|-----2-------0---|-
A|-----------------|-----------------|-----------------|-0-------0-------|-
E|-3-------3-------|-3-------3-------|-3-------3-------|-----------------|-

1:18 - 2:04, this part is repeated (6 times).

--------------------------
| (x) Optional
--------------------------

This is the first version, tab in progress
Enjoy!
Tap to rate this tab
# A B C D E F G H I J K L M N O P Q R S T U V W X Y Z