Song name
# A B C D E F G H I J K L M N O P Q R S T U V W X Y Z

Anberlin - Dismantle Repair Acoustic tab

Tabbed by: maclover02


I did copy/paste the chorus and bridge from another tab on here, but the beginning was 
and it was missing a bunch, so I tabbed out the whole song. Sounds goods with the 
version on the album "Lost Songs".

*2 guitars play on the recording, though it is only really noticeable at the beginning, 
guitar 1 strikes chords, and guitar 2 simply picks each note out. I tabbed it with the 
though it is possible to play both parts with 1 guitar.


Tuning: 1/2 Step Down


Verses (make chords x2440x and x4660x)[sometimes chords are strum on later verses]

    One last glance...     Taxicab
eb |------------------------------------------------------------|
Bb |--------0-------------------0-------------------------------|
Gb |------4---4--------------6----6-----------------------------|
Db |----4------------------6------------------------------------|
Ab |--2-----------------4---------------------------------------|
Eb |------------------------------------------------------------|

Pre-Chorus

     Oh...  things are gunna change now...
eb |-x-----x--------------------------------------------------|
Bb |-x-----x--------------------------------------------------|
Gb |-4-----6--------------------------------------------------|
Db |-4-----6--------------------------------------------------|
Ab |-2-----4--------------------------------------------------|
Eb |-x-----x--------------------------------------------------|


CHORUS:

      Hands, like secrets, are...                           Lines and phrases, like knives...
eb |--------------------------------------------------------|
Bb |--------------------------------------------------------|
Gb |--6--------------------------------8--------------------|
Db |--7--------------------------------9--------------------|
Ab |--7--------------------------------9--------------------|
Eb |--5--------------------------------7--------------------|


      Dismantle me down (repair)...    You dismantle me...
eb |--4--------------------------------0--------------------|
Bb |--5--------------------------------0--------------------|
Gb |--6--------------------------------1--------------------|
Db |--6--------------------------------2--------------------|
Ab |--4--------------------------------2--------------------|
Eb |--4--------------------------------0--------------------|


BRIDGE: (Picked on recording but can simply be strum)

                     Save me from myself
eb |--5--------------7--------------4-----------------------|
Bb |--5--------------7--------------5-----------------------|
Gb |--6--------------8--------------6-----------------------|
Db |--7--------------9--------------6-----------------------|
Ab |--7--------------9--------------4-----------------------|
Eb |--5--------------7--------------4-----------------------|


End:

     you dismantle...me
eb |-x-------------------------------------------------------|
Bb |-x-------------------------------------------------------|
Gb |-6-------------------------------------------------------|
Db |-7-------------------------------------------------------|
Ab |-7-------------------------------------------------------|
Eb |-5-------------------------------------------------------|
Tap to rate this tab
# A B C D E F G H I J K L M N O P Q R S T U V W X Y Z