Song name
# A B C D E F G H I J K L M N O P Q R S T U V W X Y Z

Anberlin - The Resistance tab

-------------------------------------------------------------------------------
			     THE RESISTANCE - Anberlin
-------------------------------------------------------------------------------
Tabbed by: Shawn
Email: motioncityost@yahoo.com

Tuning: Drop C (CGCFAd)

Intro

Gtr.1
  PMPMPPMPMPMPMPMPMPMPMPMPMPMPMPMPMPMPMPMPMPMPMPMPMPMPMPMPMPMPMPMPM
d|---------------------------------------------------------------------------|
A|---------------------------------------------------------------------------|
F|---------------------------------------------------------------------------|
C|---------------------------------------------------------------------------|
G|---------------------------------------------------------------------------|
C|-5555555555555555555555555555555511111111111111113333333333333333----------|
x2

Gtr.2
  PMPMPMPMPMPMPMPMPMPMPMPMPMPMPMPMPMPMPMPMPMPMPMPMPMPMPMPMPMPMPMPM
d|---------------------------------------------------------------------------|
A|---------------------------------------------------------------------------|
F|-----------------------------------88887777555533333h5555555---------------|
C|-7888888888888875-7888888888888875---------------------------7777-7b8r7b8r7|
G|---------------------------------------------------------------------------|
C|---------------------------------------------------------------------------|
x2

Gtr.1&2
d|---------------------------------------------------------------------------|
A|---------------------------------------------------------------------------|
F|---------------------------------------------------------------------------|
C|-1-1-1-1-1-1-1-1-----------------------------------------------------------|
G|-1-1-1-1-1-1-1-1-----------------------------------------------------------|
C|-1-1-1-1-1-1-1-1-----------------------------------------------------------|

Verse 1

Gtr.1
   PMPMPMPMPMPMPMPMPMPMPMPMPMPMPMPMPMPMPMPMPMPMPMPMPMPMPMPMPMPMPMPM
d|---------------------------------------------------------------------------|
A|---------------------------------------------------------------------------|
F|---------------------------------------------------------------------------|
C|-5555555555555555555555555555555511111111111111113333333333333333----------|
G|-5555555555555555555555555555555511111111111111113333333333333333----------|
C|-5555555555555555555555555555555511111111111111113333333333333333----------|
x2

Gtr.2  Its hard to tab these notes out. so assume they are all chorded together. 
d|-----------------------------------11--10--888866666-8888888---------------|
A|-10-11-11-11-11--10-11-11-11-11------------------------------10-10-10------|
F|-----------------------------------88887777555533333/5555555---------------|
C|-78888888888888--78888888888888------------------------------77777777------|
G|---------------------------------------------------------------------------|
C|---------------------------------------------------------------------------|
x2

Pre Chorus

Gtr.1
d|---------------------------------------------------------------------------|
A|---------------------------------------------------------------------------|
F|---------------------------------------------------------------------------|
C|-5-5------------5-5--------------------------------------------------------|
G|-5-5------------5-5--------------------------------------------------------|
C|-5-5------------5-5--------------------------------------------------------|

Gtr.2
    PMPMPMPMPMPM  PMPMPMPMPMPM
d|---------------------------------------------------------------------------|
A|---------------------------------------------------------------------------|
F|---------------------------------------------------------------------------|
C|--555555555555--555555555555-----------------------------------------------|
G|---------------------------------------------------------------------------|
C|---------------------------------------------------------------------------|

Chorus

Gtr.1
d|-------------------------------------------------------------------------------------------------|
A|-------------------------------------------------------------------------------------------------|
F|-------------------------------------------------------------------------------------------------|
C|-55-----5-5-5----11-----3-3----555555555555555555555555555555511111111111111113333333333333333-1~|
G|-55-----5-5-5----11-----3-3----555555555555555555555555555555511111111111111113333333333333333-1~|
C|-55-----5-5-5----11-----3-3----555555555555555555555555555555511111111111111113333333333333333-1~|

Gtr.2 
d|-------------------------------------------------------------------------------------------------|
A|-11-11-11-11-11-11-11-11-11-11-11-11-11-11-11-11-11-11-11-11-11-11-11-11-11-11-11-11-13-13-10-10-|
F|-------------------------------------------------------------------------------------------------|
C|-8--8--8--8--8--8--8--8--8--8--8--8--8--8--8--8--8--8--8--8--8--8--8--8--8--8--8--8--10-10-7--7--|
G|-------------------------------------------------------------------------------------------------|
C|-------------------------------------------------------------------------------------------------|
x2

Verse 2

Gtr.1
   PMPMPMPMPMPMPMPMPMPMPMPMPMPMPMPMPMPMPMPMPMPMPMPMPMPMPMPMPMPMPMPM
d|---------------------------------------------------------------------------|
A|---------------------------------------------------------------------------|
F|---------------------------------------------------------------------------|
C|-5555555555555555555555555555555511111111111111113333333333333333----------|
G|-5555555555555555555555555555555511111111111111113333333333333333----------|
C|-5555555555555555555555555555555511111111111111113333333333333333----------|
x2

Gtr.2
d|-----------------------------------------------------------------------------------|
A|------11-----11-----11----11----11---11----11-----11-----11-----11-----11---11-----|
F|--7h8----7-7----7-7----7-7---7-7----7----7----7-7----7-7----7-7----7-7----7----7---|
C|-----------------------------------------------------------------------------------|
G|-----------------------------------------------------------------------------------|
C|-----------------------------------------------------------------------------------|

Gtr.2 Continued.
d|-----------------------------------------------------------------------------------|
A|--6-----6-----6-----6-----6---6---10-------10-------13-------13-------10----10-----|
F|----8-8---8-8---8-8---8-8---8---8----10-10----10-10----10-10----10-10----10----10--|
C|-----------------------------------------------------------------------------------|
G|-----------------------------------------------------------------------------------|
C|-----------------------------------------------------------------------------------|

Prechorus

Gtr.1
d|---------------------------------------------------------------------------|
A|---------------------------------------------------------------------------|
F|---------------------------------------------------------------------------|
C|-5-5------------5-5----------3~--------------------------------------------|
G|-5-5------------5-5----------3~--------------------------------------------|
C|-5-5------------5-5----------3~--------------------------------------------|

Gtr.2
    PMPMPMPMPMPM  PMPMPMPMPMPM
d|---------------------------------------------------------------------------|
A|---------------------------------------------------------------------------|
F|---------------------------------------------------------------------------|
C|--555555555555--555555555555-3~--------------------------------------------|
G|-----------------------------3~--------------------------------------------|
C|-----------------------------3~--------------------------------------------|

Chorus

Gtr.1
d|------------------------------------------------------------------------------------------------|
A|------------------------------------------------------------------------------------------------|
F|------------------------------------------------------------------------------------------------|
C|55-----5-5-5----11-----3-3----555555555555555555555555555555511111111111111113333333333333333-5\|
G|55-----5-5-5----11-----3-3----555555555555555555555555555555511111111111111113333333333333333-5\|
C|55-----5-5-5----11-----3-3----555555555555555555555555555555511111111111111113333333333333333-5\|

Gtr.2 
d|-------------------------------------------------------------------------------------------------|
A|-11-11-11-11-11-11-11-11-11-11-11-11-11-11-11-11-11-11-11-11-11-11-11-11-11-11-11-11-13-13-10-10-|
F|-------------------------------------------------------------------------------------------------|
C|-8--8--8--8--8--8--8--8--8--8--8--8--8--8--8--8--8--8--8--8--8--8--8--8--8--8--8--8--10-10-7--7--|
G|-------------------------------------------------------------------------------------------------|
C|-------------------------------------------------------------------------------------------------|
x2

Bridge

Gtrs. 1&2
d|------------------------------------------------------------------------------------|
A|------------------------------------------------------------------------------------|
F|------------------------------------------------------------------------------------|
C|------------------------------------------------------------------------------------|
G|---------5-------------5-------------5-------------5-------------3------------3-----|
C|-5-5-3-5---5-3-5-5-3-5---5-3-5-5-3-5---5-3-5-5-3-5---5-3-1-1-0-1---1-0-1-1-0-1--1-0-|

d|---------------------------------------------------------------------------|
A|---------------------------------------------------------------------------|
F|--------------------------4+-----------------------------------------------|
C|-------------------------4+------------------------------------------------|
G|---------1-----------------------------------------------------------------|
C|-3-3-1-3---3-1-3-3-1-3-4+--------------------------------------------------|
x2
No harmonics the 2nd time through.

Prechorus

Gtr.1
d|---------------------------------------------------------------------------|
A|---------------------------------------------------------------------------|
F|---------------------------------------------------------------------------|
C|-5-5------------5-5----------5-5----------3--3--3--3-----------------------|
G|-5-5------------5-5----------5-5----------3--3--3--3-----------------------|
C|-5-5------------5-5----------5-5----------3xx3xx3xx3xx---------------------|

Gtr.2
    PMPMPMPMPMPM  PMPMPMPMPMPM   PMPMPMPMPMPM
d|---------------------------------------------------------------------------|
A|---------------------------------------------------------------------------|
F|---------------------------------------------------------------------------|
C|--555555555555--555555555555---555555555555--------------------------------|
G|---------------------------------------------------------------------------|
C|---------------------------------------------------------------------------|

Chorus

Gtr.1
d|-------------------------------------------------------------------------------------------------|
A|-------------------------------------------------------------------------------------------------|
F|-------------------------------------------------------------------------------------------------|
C|55-----5-5-5-5---11-----3-3----555555555555555555555555555555511111111111111113333333333333333-5\|
G|55-----5-5-5-5---11-----3-3----555555555555555555555555555555511111111111111113333333333333333-5\|
C|55-----5-5-5-5---11-----3-3----555555555555555555555555555555511111111111111113333333333333333-5\|

Gtr.2 
d|-------------------------------------------------------------------------------------------------|
A|-11-11-11-11-11-11-11-11-11-11-11-11-11-11-11-11-11-11-11-11-11-11-11-11-11-11-11-11-13-13-10-10-|
F|-------------------------------------------------------------------------------------------------|
C|-8--8--8--8--8--8--8--8--8--8--8--8--8--8--8--8--8--8--8--8--8--8--8--8--8--8--8--8--10-10-7--7--|
G|-------------------------------------------------------------------------------------------------|
C|-------------------------------------------------------------------------------------------------|
x2

Outro

Gtrs. 1&2
d|---------------------------------------------------------------------------|
A|---------------------------------------------------------------------------|
F|---------------------------------------------------------------------------|
C|---------------------------------------------------------------------------|
G|----5-0-1-1-0-1-3-3-1-0-1-0-------5-0-1-1-0-1-3-3-1-0-1-0------------------|
C|-55-------------------------3--55-------------------------3----------------|

Gtrs. 1&2 cont.
d|---------------------------------------------------------------------------|
A|---------------------------------------------------------------------------|
F|---------------------------------------------------------------------------|
C|---------------------------------------------------------------------------|
G|----5-0-1-1-0-1-3-3-1-0-1-0-------5-0-1-1-0-1-3-3-1-0-1-0------------------|
C|-11-------------------------1--33-------------------------3----------------|
x2

End with!

d|------|
A|------|
F|------|
C|--55--|
G|--55--|
C|--55--|

| PM palm mute
| /  slide up
| \  slide down
| h  hammer-on
| p  pull-off
| ~  vibrato
| +  harmonic
| x  Mute note
===============================================================================
Tap to rate this tab
# A B C D E F G H I J K L M N O P Q R S T U V W X Y Z