Song name
# A B C D E F G H I J K L M N O P Q R S T U V W X Y Z

Anberlin - Haight Street tab

Help us improve GuitareTab! Take a short survey!
Anberlin - Haight St.

Guitar Solo (2:05)
e|-------------------------------------------------------------------8-----------------------|
b|------------------------------------------------------------------------11----10-----------|
g|-------------------------------------------8----10----8------------------------------------|
d|-----10----12--9~-----9----9-10~-----10----------------------10----------------------------|
a|-/10----10--------/10---10-------/10----10---10----10----/10----10---10----10--------------|
e|-------------------------------------------------------------------------------------------|


e|-------------------------------------------------------------------------------------------|
b|-/13-13-13---------------------------------11p10-------11p10-------11p10-------11p10-------|
g|-----------10~--10h12--12/14-14-14/15\14~--------12p10-------12p10-------12p10-------12p10-|
d|-------------------------------------------------------------------------------------------|
a|-----------------------10/12-12-12/13\12~--------------------------------------------------|
e|-------------------------------------------------------------------------------------------|
                   Lead Riff
e|----------------|-------------------------------------------------------|------------------|
b|----------------|------13-------13---13--------13--------13-----13----o-|------------------|
g|-9h10p9--7\5-5--|-9\10----10\9-----9-----10h12-----12p10-----10---------|------------------|
d|----------------|-------------------------------------------------------|------------------|
a|----------------|-----------------------------------------------------o-|------------------|
e|----------------|-------------------------------------------------------|------------------|
Related for Haight Street tab