Song name
# A B C D E F G H I J K L M N O P Q R S T U V W X Y Z

Anberlin - Heavier Things Remain Graviora Manent tab

Help us improve GuitareTab! Take a short survey!
-------------------------------------------------------------------------------
	     Heavier Things Remain (Graviora Manent) - Anberlin
-------------------------------------------------------------------------------
Tabbed by: Bradley J. Spaulding
Email: brad@usai.net

Tuning: DADGBE

  Intro/Verse Riff
e|---------------------------------------------------------------------------|
B|---------------------------------------------------------------------------|
G|---------------------------------------------------------------------------|
D|-0-7h9--9h11--0-7h9--9h11--0-7h9--9h11---0-7h9--9h12-----------------------|
A|-0-7h9--------0-7h9--------0-7h9---------0-7h9-----------------------------|
D|-0-7h9--------0-7h9--------0-7h9---------0-7h9-----------------------------|

e|---------------------------------------------------------------------------|
B|-------------------------------------------------------------------------o-|
G|---------------------------------------------------------------------------|
D|-0-4h5--7h9---0-4h5--7h9---0-4h5--7h9----0-4h5--9h11-----------------------|
A|-0-4h5--------0-4h5--------0-4h5---------0-4h5---------------------------o-|
D|-0-4h5--------0-4h5--------0-4h5---------0-4h5-----------------------------|

  Chorus (Lead Riff)
e|---------------------------------------------------------------------------|
B|---------------------------------------------------------------------------|
G|-7---7---7---7---7---9---11---11---11---11---11---11-----------------------|
D|---7---7---7---7---7---7----7----7----7----7----7----7---------------------|
A|---------------------------------------------------------------------------|
D|---------------------------------------------------------------------------|

e|---------------------------------------------------------------------------|
B|-------------------------------------------------------------------------o-|
G|-9-------6~---9-------6~---9-------6~--------------------------------------|
D|-----7-9----------7-9----------7-9-----------------------------------------|
A|---9------------9------------9-------------------------------------------o-|
D|---------------------------------------------------------------------------|


| /  slide up
| \  slide down
| h  hammer-on
| p  pull-off
| ~  vibrato
| +  harmonic
| x  Mute note
===============================================================================
Related for Heavier Things Remain Graviora Manent tab