Song name
# A B C D E F G H I J K L M N O P Q R S T U V W X Y Z

Anberlin - Breaking Acoustic tab

Anberlin
breaking
New Surrender (2008)

 Guitar 1
e--------------------|-----------------|----------------|------||
b------0--0-0-0------|-0--0-0-0------0-|-0-0-0-----0--0-|0-0---||
g------4--4-4-4------|-4--4-4-4------4-|-4-4-4-----4--4-|4-4---||
d----2-2--2-2-2----2-|-2--2-2-2----4-4-|-4-4-4---4-4--4-|4-4---||
a--4---4--4-4-4--0---|-0--0-0-0--2---2-|-2-2-2-2---2--2-|2-2---||
E--------------------|-----------------|----------------|------||
 Guitar 2
e------7-------------------------------|
b---------------5------7h9--7------9---|
g--------------------------------------|
d--------------------------------------|
a--------------------------------------|
E--------------------------------------|
 Chorus
e-----------------------------|-7--7--7-7-7--7--7-7--7-7-7-|
b--2--2--2-2-2--2--2-2--2-2-2-|-7--7--7-7-7--7--7-7--7-7-7-|
g--2--2--2-2-2--2--2-2--2-2-2-|-8--8--8-8-8--8--8-8--8-8-8-|
d--2--2--2-2-2--2--2-2--2-2-2-|-9--9--9-9-9--9--9-9--9-9-9-|
a--0--0--0-0-0--0--0-0--0-0-0-|-9--9--9-9-9--9--9-9--9-9-9-|
E-----------------------------|-7--7--7-7-7--7--7-7--7-7-7-|

e-----------------------------|-7--7--7-7-7--7--7-7--7-7-7-|
b--2--2--2-2-2--2--2-2--2-2-2-|-7--7--7-7-7--7--7-7--7-7-7-|
g--2--2--2-2-2--2--2-2--2-2-2-|-8--8--8-8-8--8--8-8--8-8-8-|
d--2--2--2-2-2--2--2-2--2-2-2-|-9--9--9-9-9--9--9-9--9-9-9-|
a--0--0--0-0-0--0--0-0--0-0-0-|-9--9--9-9-9--9--9-9--9-9-9-|
E-----------------------------|-7--7--7-7-7--7--7-7--7-7-7-|

e-----------------------------|-7--7--7-7-7--7--7-7--7-7-7-|---|
b--2--2--2-2-2--2--2-2--2-2-2-|-7--7--7-7-7--7--7-7--7-7-7-|-2-|
g--2--2--2-2-2--2--2-2--2-2-2-|-8--8--8-8-8--8--8-8--8-8-8-|-2-|
d--2--2--2-2-2--2--2-2--2-2-2-|-9--9--9-9-9--9--9-9--9-9-9-|-2-|
a--0--0--0-0-0--0--0-0--0-0-0-|-9--9--9-9-9--9--9-9--9-9-9-|-0-|
E-----------------------------|-7--7--7-7-7--7--7-7--7-7-7-|---| 

Tap to rate this tab
# A B C D E F G H I J K L M N O P Q R S T U V W X Y Z