Song name
# A B C D E F G H I J K L M N O P Q R S T U V W X Y Z

Anberlin - Godspeed tab

Drop C Tuning
Godspeed

D|-------------------------------------------------------|
A|-----10-10------8-8------8------8-8------6-6------6----|
F|--7-7--7--7--7-7-7-7--7-7-7--5-5-5-5--5-5-5-5--5-5-5---|
C|-------------------------------------------------------|
G|-------------------------------------------------------|
C|-------------------------------------------------------|


D|-------------------------------------------|
A|--6-5--8-5--6-5--8-5---10101010------------|
F|-----5----5----5----5---x-x-x-x------------|
C|------------------------7-7-7-7------------|
G|-------------------------------------------|
C|-------------------------------------------|

Tap to rate this tab
# A B C D E F G H I J K L M N O P Q R S T U V W X Y Z