Song name
# A B C D E F G H I J K L M N O P Q R S T U V W X Y Z

Anberlin - Inevitable tab

Artist: Anberlin
Song: Inevitable
CD: Cities (2007)
Tabbed By: fret13@columbus.rr.com
Tuning: Standard

|--|
|--|
|--|
|--|
|--|
|--|

Verse - Guitar 1
|-0-------|x20
|-----0---|
|---2---2-|
|---------|
|---------|
|---------|

Guitar 2 - Very quiet and comes in about the time the singing starts
|-----------------------------------------------------------------|x2
|-----------------------------------------------------------------|
|-----------------------------------------------------------------|
|-----------------------------------------------------------------|
|-4-4-4-4-4-4-4-4-4-4-4-4-7-7-7-7-0-0-0-0-0-0-0-0-2-2-2-2-2-2-2-2-|
|-5-5-5-5-5-5-5-5-5-5-5-5-5-5-5-5-2-2-2-2-2-2-2-2-0-0-0-0-0-0-0-0-|

Pre-Chorus -  Guitar 1 & 2
|-----0-------0-------0-------0-|
|-0-0-0-0-0-0-0-0-0-0-0-0-0-0-0-|
|-2-2-2-2-2-2-2-2-2-2-2-2-2-2-2-|
|-2-2-2-2-2-2-2-2-2-2-2-2-2-2-2-|
|-0-0-0-0-0-0-0-0-0-0-0-0-0-0-0-|
|-------------------------------|

|-0-0-0-0-0-0-0-0-0-0-0-0-0-0-0-0-|
|-5-5-5-5-5-5-5-5-5-5-5-5-5-5-5-5-|
|-6-6-6-6-6-6-6-6-6-6-6-6-6-6-6-6-|
|-6-6-6-6-6-6-6-6-6-6-6-6-6-6-6-6-|
|-4-4-4-4-4-4-4-4-4-4-4-4-4-4-4-4-|
|---------------------------------|

|-----0-------0-------0-------0-|
|-0-0-0-0-0-0-0-0-0-0-0-0-0-0-0-|
|-2-2-2-2-2-2-2-2-2-2-2-2-2-2-2-|
|-2-2-2-2-2-2-2-2-2-2-2-2-2-2-2-|
|-0-0-0-0-0-0-0-0-0-0-0-0-0-0-0-|
|-------------------------------|

|-0-0-0-0-0-0-0-0-0-0-0-0-0-0-0-0-|
|-5-5-5-5-5-5-5-5-5-5-5-5-5-5-5-5-|
|-6-6-6-6-6-6-6-6-6-6-6-6-6-6-6-6-|
|-6-6-6-6-6-6-6-6-6-6-6-6-6-6-6-6-|
|-4-4-4-4-4-4-4-4-4-4-4-4-4-4-4-4-|
|---------------------------------|

|-5-5-5-5-5-5-5-5-5-5-5-5-5-5-5-5-|
|-5-5-5-5-5-5-5-5-5-5-5-5-5-5-5-5-|
|-7-7-7-7-7-7-7-7-7-7-7-7-7-7-7-7-|
|-7-7-7-7-7-7-7-7-7-7-7-7-7-7-7-7-|
|-5-5-5-5-5-5-5-5-5-5-5-5-5-5-5-5-|
|---------------------------------|

Chorus - Guitar 1
|---------------------------------|x3
|-------5-------5-------5---------|
|-----2-------2-------2---2---2---|
|---2-------2-------2-------2---2-|
|-----------------0---------------|
|-2-------4-----------------------|

|-----------------------------|
|-----2-------2-----2---3---5-|
|-------2-------2---2---2---2-|
|---4-------4-----4---4---4---|
|-----------------------------|
|-2-------2-------------------|

Verse - Guitar 1
|-0-------|x20
|-----0---|
|---2---2-|
|---------|
|---------|
|---------|

Guitar 2 - Very quiet
|-----------------------------------------------------------------|x2
|-----------------------------------------------------------------|
|-----------------------------------------------------------------|
|-----------------------------------------------------------------|
|-4-4-4-4-4-4-4-4-4-4-4-4-7-7-7-7-0-0-0-0-0-0-0-0-2-2-2-2-2-2-2-2-|
|-5-5-5-5-5-5-5-5-5-5-5-5-5-5-5-5-2-2-2-2-2-2-2-2-0-0-0-0-0-0-0-0-|

Pre-Chorus - Guitar 1 & 2
|-----0-------0-------0-------0-|
|-0-0-0-0-0-0-0-0-0-0-0-0-0-0-0-|
|-2-2-2-2-2-2-2-2-2-2-2-2-2-2-2-|
|-2-2-2-2-2-2-2-2-2-2-2-2-2-2-2-|
|-0-0-0-0-0-0-0-0-0-0-0-0-0-0-0-|
|-------------------------------|

|-0-0-0-0-0-0-0-0-0-0-0-0-0-0-0-0-|
|-5-5-5-5-5-5-5-5-5-5-5-5-5-5-5-5-|
|-6-6-6-6-6-6-6-6-6-6-6-6-6-6-6-6-|
|-6-6-6-6-6-6-6-6-6-6-6-6-6-6-6-6-|
|-4-4-4-4-4-4-4-4-4-4-4-4-4-4-4-4-|
|---------------------------------|

|-----0-------0-------0-------0-|
|-0-0-0-0-0-0-0-0-0-0-0-0-0-0-0-|
|-2-2-2-2-2-2-2-2-2-2-2-2-2-2-2-|
|-2-2-2-2-2-2-2-2-2-2-2-2-2-2-2-|
|-0-0-0-0-0-0-0-0-0-0-0-0-0-0-0-|
|-------------------------------|

|-0-0-0-0-0-0-0-0-0-0-0-0-0-0-0-0-|
|-5-5-5-5-5-5-5-5-5-5-5-5-5-5-5-5-|
|-6-6-6-6-6-6-6-6-6-6-6-6-6-6-6-6-|
|-6-6-6-6-6-6-6-6-6-6-6-6-6-6-6-6-|
|-4-4-4-4-4-4-4-4-4-4-4-4-4-4-4-4-|
|---------------------------------|

|-5-5-5-5-5-5-5-5-5-5-5-5-5-5-5-5-|
|-5-5-5-5-5-5-5-5-5-5-5-5-5-5-5-5-|
|-7-7-7-7-7-7-7-7-7-7-7-7-7-7-7-7-|
|-7-7-7-7-7-7-7-7-7-7-7-7-7-7-7-7-|
|-5-5-5-5-5-5-5-5-5-5-5-5-5-5-5-5-|
|---------------------------------|

Chorus - Guitar 1
|---------------------------------|x3
|-------5-------5-------5---------|
|-----2-------2-------2---2---2---|
|---2-------2-------2-------2---2-|
|-----------------0---------------|
|-2-------4-----------------------|

|--------------------------------|
|-----2-------2-------------2--3-|
|-------2-------2---2---4---2--2-|
|---4-------4-----4-4-4-4-4--4---|
|--------------------------------|
|-2-------2----------------------|

Breakdown - Guitar 2
|-----------------------------------------------------------------|as much as
|-----------------------------------------------------------------|you need
|-----------------------------------------------------------------|
|-----------------------------------------------------------------|
|-4-4-4-4-4-4-4-4-4-4-4-4-7-7-7-7-0-0-0-0-0-0-0-0-2-2-2-2-2-2-2-2-|
|-5-5-5-5-5-5-5-5-5-5-5-5-5-5-5-5-2-2-2-2-2-2-2-2-0-0-0-0-0-0-0-0-|

Guitar 1 - A note on this guitar here, he plays it like this but i think they just use 
recording stuff to make it sound like this because its really hard to break this broken 
chord over and over again.
|-0-----0-|x4
|-0---0-0-|
|---2-2-2-|
|---2---2-|
|-------0-|
|---------|

|-0-0-0-0-0-0-0-0-0-0-0-0-0-0-0-0-|
|-5-5-5-5-5-5-5-5-5-5-5-5-5-5-5-5-|
|-6-6-6-6-6-6-6-6-6-6-6-6-6-6-6-6-|
|-6-6-6-6-6-6-6-6-6-6-6-6-6-6-6-6-|
|-4-4-4-4-4-4-4-4-4-4-4-4-4-4-4-4-|
|---------------------------------|

|-0-----0-|x4
|-0---0-0-|
|---2-2-2-|
|---2---2-|
|-------0-|
|---------|

|-0-0-0-0-0-0-0-0-0-0-0-0-0-0-0-0-|
|-5-5-5-5-5-5-5-5-5-5-5-5-5-5-5-5-|
|-6-6-6-6-6-6-6-6-6-6-6-6-6-6-6-6-|
|-6-6-6-6-6-6-6-6-6-6-6-6-6-6-6-6-|
|-4-4-4-4-4-4-4-4-4-4-4-4-4-4-4-4-|
|---------------------------------|

|-5-5-5-5-5-5-5-5-5-5-5-5-5-5-5-5-|
|-5-5-5-5-5-5-5-5-5-5-5-5-5-5-5-5-|
|-7-7-7-7-7-7-7-7-7-7-7-7-7-7-7-7-|
|-7-7-7-7-7-7-7-7-7-7-7-7-7-7-7-7-|
|-5-5-5-5-5-5-5-5-5-5-5-5-5-5-5-5-|
|---------------------------------|

Last Chorus - Guitar 1
|---------------------------------|x8
|-------5-------5-------5---------|
|-----2-------2-------2---2---2---|
|---2-------2-------2-------2---2-|
|-----------------0---------------|
|-2-------4-----------------------|

|----------------------------------------|
|----------------------------------------|
|----------------------------------------|
|-----------4---6h7---7---7-9---9--------|
|---0-4/5-5---5-----5---5-----5---4-0-2~-|
|-2-------------------------------5-2-0~-|
Tap to rate this tab
# A B C D E F G H I J K L M N O P Q R S T U V W X Y Z