Song name
# A B C D E F G H I J K L M N O P Q R S T U V W X Y Z

Anberlin - Fin tab

intro e------------|
      b------------|
      g-6-8-9-11-9-|
      d-x-x-x-x--x-|
      a-4-6-7-9--7-|
      e------------|

verse and chorus
      e-0--0--0--0--|
      b-0--0--0--0--|
      g-6--2--1--4--|
      d-6--2--2--4--|
      a-4--0--2--2--|
      e-0--0--0--0--|

solo 1a
      e------------------------------------------------------|
      b------------------------------------------------------|
      g-6-6-6-8-8-8-9-9-9-11-11-11-9-9-9-9-9-9-9-9-9-8-8-8-8-|
      d------------------------------------------------------|
      a------------------------------------------------------|
      e------------------------------------------------------|

      e---------------------|
      b---------------------|
      g-6-6-6-4-4-4---------|
      d---------------------|
      a---------------------|
      e---------------------|

solo 1b
      e------------------------------------------------------|
      b------------------------------------------------------|
      g-6-6-6-8-8-8-9-9-9-11-11-11-9-9-9-11-11-11-13-13-13---|
      d------------------------------------------------------|
      a------------------------------------------------------|
      e------------------------------------------------------|

      e-9-9-9-12-12-12-12-12-12-12-14-14-14-14-14/0--|
      b----------------------------------------------|
      g----------------------------------------------|
      d----------------------------------------------|
      a----------------------------------------------|
      e----------------------------------------------|

solo 2
      e-------------------------------------------------------------|
      b-------------------------------------------------------------|
      g-9-9-9-9-9-9-11-11-11-11-11-11-11-11-11-13-13-13-13b-13b-13b-|
      d-------------------------------------------------------------|
      a-------------------------------------------------------------|
      e-------------------------------------------------------------|

      e-------------------------------------------------------------|
      b-------------------------------------------------------------|
      g-13-13-13-13-13-13b-13b-13b----------------------------------|
      d----------------------------14-14-14-14-14-14-14-13-13-13-13-|
      a-------------------------------------------------------------|
      e-------------------------------------------------------------|
Tap to rate this tab
 
# A B C D E F G H I J K L M N O P Q R S T U V W X Y Z