Guitaretab - guitar tabs
Song name
# A B C D E F G H I J K L M N O P Q R S T U V W X Y Z

Anberlin - Adelaide tab

tuning: Drop D
listen to song for strumming

Intro/Chorus:
Gtr1
e|-------7---------------------------|
B|---8-9-----------------------------|
G|----------9---11--13--9---11--13---|
D|----------7----9--11--7----9--11---|
A|----------7----9--11--7----9--11---|
E|----------7----9--11--7----9--11---|


Verse:
Gtr1
e|------------------|
B|------------------|
G|------------------|
D|----7----9---11---|
A|----7----9---11---|
E|----7----9---11---|


Pre-Chorus:
Gtr1
e|---------|
B|---------|
G|---------|
D|----7----|
A|----7----|
E|----7----|

[ Tab from: http://www.guitaretab.com/a/anberlin/154862.html ]
Bridge
Gtr2 (clean)
e|--------2--------0--------4-------7------|
B|-----------------------2-----------------|
G|-----------------------------------------|
D|-----4--------2-----------------9~-------|
A|--2--------0~-------4--------7~----------|
E|-----------------------------------------|

Gtr2
e|--------------------------------------|
B|--------------------------------------|
G|--------------------------------------|
D|--9-------7-------11-------2----------|
A|--9-------7-------11-------2----------|
E|--9-------7-------11-------2----------|



--still studying the solo
:]
Related for Adelaide tab
Advertisement will be closed in 10 seconds